  0
SECTION
  2
HEADER
  9
$ACADVER
  1
AC1032
  9
$ACADMAINTVER
 90
      228
  9
$DWGCODEPAGE
  3
ANSI_932
  9
$REQUIREDVERSIONS
160
                 0
  9
$INSBASE
 10
0.0
 20
0.0
 30
0.0
  9
$EXTMIN
 10
1.000000000000000E+20
 20
1.000000000000000E+20
 30
1.000000000000000E+20
  9
$EXTMAX
 10
-1.000000000000000E+20
 20
-1.000000000000000E+20
 30
-1.000000000000000E+20
  9
$LIMMIN
 10
0.0
 20
0.0
  9
$LIMMAX
 10
12.0
 20
9.0
  9
$ORTHOMODE
 70
     0
  9
$REGENMODE
 70
     1
  9
$FILLMODE
 70
     1
  9
$QTEXTMODE
 70
     0
  9
$MIRRTEXT
 70
     0
  9
$LTSCALE
 40
1.0
  9
$ATTMODE
 70
     1
  9
$TEXTSIZE
 40
0.2
  9
$TRACEWID
 40
0.05
  9
$TEXTSTYLE
  7
Standard
  9
$CLAYER
  8
0
  9
$CELTYPE
  6
ByLayer
  9
$CECOLOR
 62
   256
  9
$CELTSCALE
 40
1.0
  9
$DISPSILH
 70
     0
  9
$DIMSCALE
 40
1.0
  9
$DIMASZ
 40
0.18
  9
$DIMEXO
 40
0.0625
  9
$DIMDLI
 40
0.38
  9
$DIMRND
 40
0.0
  9
$DIMDLE
 40
0.0
  9
$DIMEXE
 40
0.18
  9
$DIMTP
 40
0.0
  9
$DIMTM
 40
0.0
  9
$DIMTXT
 40
0.18
  9
$DIMCEN
 40
0.09
  9
$DIMTSZ
 40
0.0
  9
$DIMTOL
 70
     0
  9
$DIMLIM
 70
     0
  9
$DIMTIH
 70
     1
  9
$DIMTOH
 70
     1
  9
$DIMSE1
 70
     0
  9
$DIMSE2
 70
     0
  9
$DIMTAD
 70
     0
  9
$DIMZIN
 70
     0
  9
$DIMBLK
  1

  9
$DIMASO
 70
     1
  9
$DIMSHO
 70
     1
  9
$DIMPOST
  1

  9
$DIMAPOST
  1

  9
$DIMALT
 70
     0
  9
$DIMALTD
 70
     2
  9
$DIMALTF
 40
25.4
  9
$DIMLFAC
 40
1.0
  9
$DIMTOFL
 70
     0
  9
$DIMTVP
 40
0.0
  9
$DIMTIX
 70
     0
  9
$DIMSOXD
 70
     0
  9
$DIMSAH
 70
     0
  9
$DIMBLK1
  1

  9
$DIMBLK2
  1

  9
$DIMSTYLE
  2
Standard
  9
$DIMCLRD
 70
     0
  9
$DIMCLRE
 70
     0
  9
$DIMCLRT
 70
     0
  9
$DIMTFAC
 40
1.0
  9
$DIMGAP
 40
0.09
  9
$DIMJUST
 70
     0
  9
$DIMSD1
 70
     0
  9
$DIMSD2
 70
     0
  9
$DIMTOLJ
 70
     1
  9
$DIMTZIN
 70
     0
  9
$DIMALTZ
 70
     0
  9
$DIMALTTZ
 70
     0
  9
$DIMUPT
 70
     0
  9
$DIMDEC
 70
     4
  9
$DIMTDEC
 70
     4
  9
$DIMALTU
 70
     2
  9
$DIMALTTD
 70
     2
  9
$DIMTXSTY
  7
Standard
  9
$DIMAUNIT
 70
     0
  9
$DIMADEC
 70
     0
  9
$DIMALTRND
 40
0.0
  9
$DIMAZIN
 70
     0
  9
$DIMDSEP
 70
    46
  9
$DIMATFIT
 70
     3
  9
$DIMFRAC
 70
     0
  9
$DIMLDRBLK
  1

  9
$DIMLUNIT
 70
     2
  9
$DIMLWD
 70
    -2
  9
$DIMLWE
 70
    -2
  9
$DIMTMOVE
 70
     0
  9
$DIMFXL
 40
1.0
  9
$DIMFXLON
 70
     0
  9
$DIMJOGANG
 40
0.7853981633974483
  9
$DIMTFILL
 70
     0
  9
$DIMTFILLCLR
 70
     0
  9
$DIMARCSYM
 70
     0
  9
$DIMLTYPE
  6

  9
$DIMLTEX1
  6

  9
$DIMLTEX2
  6

  9
$DIMTXTDIRECTION
 70
     0
  9
$LUNITS
 70
     2
  9
$LUPREC
 70
     4
  9
$SKETCHINC
 40
0.1
  9
$FILLETRAD
 40
0.0
  9
$AUNITS
 70
     0
  9
$AUPREC
 70
     0
  9
$MENU
  1
.
  9
$ELEVATION
 40
0.0
  9
$PELEVATION
 40
0.0
  9
$THICKNESS
 40
0.0
  9
$LIMCHECK
 70
     0
  9
$CHAMFERA
 40
0.0
  9
$CHAMFERB
 40
0.0
  9
$CHAMFERC
 40
0.0
  9
$CHAMFERD
 40
0.0
  9
$SKPOLY
 70
     0
  9
$TDCREATE
 40
2460062.573148148
  9
$TDUCREATE
 40
2460062.198148148
  9
$TDUPDATE
 40
2460062.573148148
  9
$TDUUPDATE
 40
2460062.198148148
  9
$TDINDWG
 40
0.0000000000
  9
$TDUSRTIMER
 40
0.0000000000
  9
$USRTIMER
 70
     1
  9
$ANGBASE
 50
0.0
  9
$ANGDIR
 70
     0
  9
$PDMODE
 70
     0
  9
$PDSIZE
 40
0.0
  9
$PLINEWID
 40
0.0
  9
$SPLFRAME
 70
     0
  9
$SPLINETYPE
 70
     6
  9
$SPLINESEGS
 70
     8
  9
$HANDSEED
  5
24F
  9
$SURFTAB1
 70
     6
  9
$SURFTAB2
 70
     6
  9
$SURFTYPE
 70
     6
  9
$SURFU
 70
     6
  9
$SURFV
 70
     6
  9
$UCSBASE
  2

  9
$UCSNAME
  2

  9
$UCSORG
 10
0.0
 20
0.0
 30
0.0
  9
$UCSXDIR
 10
1.0
 20
0.0
 30
0.0
  9
$UCSYDIR
 10
0.0
 20
1.0
 30
0.0
  9
$UCSORTHOREF
  2

  9
$UCSORTHOVIEW
 70
     0
  9
$UCSORGTOP
 10
0.0
 20
0.0
 30
0.0
  9
$UCSORGBOTTOM
 10
0.0
 20
0.0
 30
0.0
  9
$UCSORGLEFT
 10
0.0
 20
0.0
 30
0.0
  9
$UCSORGRIGHT
 10
0.0
 20
0.0
 30
0.0
  9
$UCSORGFRONT
 10
0.0
 20
0.0
 30
0.0
  9
$UCSORGBACK
 10
0.0
 20
0.0
 30
0.0
  9
$PUCSBASE
  2

  9
$PUCSNAME
  2

  9
$PUCSORG
 10
0.0
 20
0.0
 30
0.0
  9
$PUCSXDIR
 10
1.0
 20
0.0
 30
0.0
  9
$PUCSYDIR
 10
0.0
 20
1.0
 30
0.0
  9
$PUCSORTHOREF
  2

  9
$PUCSORTHOVIEW
 70
     0
  9
$PUCSORGTOP
 10
0.0
 20
0.0
 30
0.0
  9
$PUCSORGBOTTOM
 10
0.0
 20
0.0
 30
0.0
  9
$PUCSORGLEFT
 10
0.0
 20
0.0
 30
0.0
  9
$PUCSORGRIGHT
 10
0.0
 20
0.0
 30
0.0
  9
$PUCSORGFRONT
 10
0.0
 20
0.0
 30
0.0
  9
$PUCSORGBACK
 10
0.0
 20
0.0
 30
0.0
  9
$USERI1
 70
     0
  9
$USERI2
 70
     0
  9
$USERI3
 70
     0
  9
$USERI4
 70
     0
  9
$USERI5
 70
     0
  9
$USERR1
 40
0.0
  9
$USERR2
 40
0.0
  9
$USERR3
 40
0.0
  9
$USERR4
 40
0.0
  9
$USERR5
 40
0.0
  9
$WORLDVIEW
 70
     1
  9
$SHADEDGE
 70
     3
  9
$SHADEDIF
 70
    70
  9
$TILEMODE
 70
     1
  9
$MAXACTVP
 70
    64
  9
$PINSBASE
 10
0.0
 20
0.0
 30
0.0
  9
$PLIMCHECK
 70
     0
  9
$PEXTMIN
 10
1.000000000000000E+20
 20
1.000000000000000E+20
 30
1.000000000000000E+20
  9
$PEXTMAX
 10
-1.000000000000000E+20
 20
-1.000000000000000E+20
 30
-1.000000000000000E+20
  9
$PLIMMIN
 10
0.0
 20
0.0
  9
$PLIMMAX
 10
12.0
 20
9.0
  9
$UNITMODE
 70
     0
  9
$VISRETAIN
 70
     1
  9
$PLINEGEN
 70
     0
  9
$PSLTSCALE
 70
     1
  9
$TREEDEPTH
 70
  3020
  9
$CMLSTYLE
  2
Standard
  9
$CMLJUST
 70
     0
  9
$CMLSCALE
 40
1.0
  9
$PROXYGRAPHICS
 70
     1
  9
$MEASUREMENT
 70
     0
  9
$CELWEIGHT
370
    -1
  9
$ENDCAPS
280
     0
  9
$JOINSTYLE
280
     0
  9
$LWDISPLAY
290
     1
  9
$INSUNITS
 70
     4
  9
$HYPERLINKBASE
  1

  9
$STYLESHEET
  1

  9
$XEDIT
290
     1
  9
$CEPSNTYPE
380
     0
  9
$PSTYLEMODE
290
     1
  9
$FINGERPRINTGUID
  2
{6718F2E4-D36C-0C42-860D-845AB3592D9F}
  9
$VERSIONGUID
  2
{5EE1EEAC-F410-0543-960E-79AABEA2C135}
  9
$EXTNAMES
290
     1
  9
$PSVPSCALE
 40
0.0
  9
$OLESTARTUP
290
     0
  9
$SORTENTS
280
   127
  9
$INDEXCTL
280
     0
  9
$HIDETEXT
280
     1
  9
$XCLIPFRAME
280
     2
  9
$HALOGAP
280
     0
  9
$OBSCOLOR
 70
   257
  9
$OBSLTYPE
280
     0
  9
$INTERSECTIONDISPLAY
280
     0
  9
$INTERSECTIONCOLOR
 70
   257
  9
$DIMASSOC
280
     2
  9
$PROJECTNAME
  1

  9
$CAMERADISPLAY
290
     0
  9
$LENSLENGTH
 40
50.0
  9
$CAMERAHEIGHT
 40
0.0
  9
$STEPSPERSEC
 40
2.0
  9
$STEPSIZE
 40
6.0
  9
$3DDWFPREC
 40
2.0
  9
$PSOLWIDTH
 40
0.25
  9
$PSOLHEIGHT
 40
4.0
  9
$LOFTANG1
 40
1.570796326794896
  9
$LOFTANG2
 40
1.570796326794896
  9
$LOFTMAG1
 40
0.0
  9
$LOFTMAG2
 40
0.0
  9
$LOFTPARAM
 70
     7
  9
$LOFTNORMALS
280
     1
  9
$LATITUDE
 40
37.795
  9
$LONGITUDE
 40
-122.394
  9
$NORTHDIRECTION
 40
0.0
  9
$TIMEZONE
 70
 -8000
  9
$LIGHTGLYPHDISPLAY
280
     1
  9
$TILEMODELIGHTSYNCH
280
     1
  9
$CMATERIAL
347
11
  9
$SOLIDHIST
280
     0
  9
$SHOWHIST
280
     1
  9
$DWFFRAME
280
     2
  9
$DGNFRAME
280
     0
  9
$REALWORLDSCALE
290
     1
  9
$INTERFERECOLOR
 62
     1
  9
$INTERFEREOBJVS
345
33
  9
$INTERFEREVPVS
346
30
  9
$CSHADOW
280
     0
  9
$SHADOWPLANELOCATION
 40
0.0
  0
ENDSEC
  0
SECTION
  2
CLASSES
  0
CLASS
  1
ACDBDICTIONARYWDFLT
  2
AcDbDictionaryWithDefault
  3
ObjectDBX Classes
 90
        0
 91
        1
280
     0
281
     0
  0
CLASS
  1
MATERIAL
  2
AcDbMaterial
  3
ObjectDBX Classes
 90
     1153
 91
        3
280
     0
281
     0
  0
CLASS
  1
VISUALSTYLE
  2
AcDbVisualStyle
  3
ObjectDBX Classes
 90
     4095
 91
       24
280
     0
281
     0
  0
CLASS
  1
SCALE
  2
AcDbScale
  3
ObjectDBX Classes
 90
     1153
 91
       17
280
     0
281
     0
  0
CLASS
  1
TABLESTYLE
  2
AcDbTableStyle
  3
ObjectDBX Classes
 90
     4095
 91
        1
280
     0
281
     0
  0
CLASS
  1
MLEADERSTYLE
  2
AcDbMLeaderStyle
  3
ACDB_MLEADERSTYLE_CLASS
 90
     4095
 91
        1
280
     0
281
     0
  0
CLASS
  1
ACDBSECTIONVIEWSTYLE
  2
AcDbSectionViewStyle
  3
ObjectDBX Classes
 90
     1025
 91
        1
280
     0
281
     0
  0
CLASS
  1
ACDBDETAILVIEWSTYLE
  2
AcDbDetailViewStyle
  3
ObjectDBX Classes
 90
     1025
 91
        1
280
     0
281
     0
  0
CLASS
  1
DICTIONARYVAR
  2
AcDbDictionaryVar
  3
ObjectDBX Classes
 90
        0
 91
        5
280
     0
281
     0
  0
CLASS
  1
CELLSTYLEMAP
  2
AcDbCellStyleMap
  3
ObjectDBX Classes
 90
     1152
 91
        1
280
     0
281
     0
  0
ENDSEC
  0
SECTION
  2
TABLES
  0
TABLE
  2
VPORT
  5
8
330
0
100
AcDbSymbolTable
 70
     1
  0
VPORT
  5
57
330
8
100
AcDbSymbolTableRecord
100
AcDbViewportTableRecord
  2
*Active
 70
     0
 10
0.0
 20
0.0
 11
1.0
 21
1.0
 12
0.0
 22
0.0
 13
0.0
 23
0.0
 14
1.0
 24
1.0
 15
0.0
 25
0.0
 16
0.0
 26
0.0
 36
1.0
 17
338.666666582
 27
190.4999999523751
 37
0.0
 40
388.8749999028449
 41
1.776612021857632
 42
50.0
 43
0.0
 44
0.0
 50
0.0
 51
0.0
 71
     0
 72
   100
 73
     1
 74
     1
 75
     0
 76
     0
 77
     0
 78
     0
281
     0
 65
     1
110
0.0
120
0.0
130
0.0
111
1.0
121
0.0
131
0.0
112
0.0
122
1.0
132
0.0
 79
     0
146
0.0
 60
     3
 61
     5
292
     1
282
     1
141
0.0
142
0.0
 63
   250
421
  3355443
  0
ENDTAB
  0
TABLE
  2
LTYPE
  5
5
330
0
100
AcDbSymbolTable
 70
    34
  0
LTYPE
  5
5B
330
5
100
AcDbSymbolTableRecord
100
AcDbLinetypeTableRecord
  2
ByBlock
 70
     0
  3

 72
    65
 73
     0
 40
0.0
  0
LTYPE
  5
5C
330
5
100
AcDbSymbolTableRecord
100
AcDbLinetypeTableRecord
  2
ByLayer
 70
     0
  3

 72
    65
 73
     0
 40
0.0
  0
LTYPE
  5
5D
330
5
100
AcDbSymbolTableRecord
100
AcDbLinetypeTableRecord
  2
Continuous
 70
     0
  3
Solid line
 72
    65
 73
     0
 40
0.0
  0
LTYPE
  5
204
330
5
100
AcDbSymbolTableRecord
100
AcDbLinetypeTableRecord
  2
AI-Linetype-0
 70
     0
  3
Adobe Illustrator Linetype No. 0
 72
    65
 73
     6
 40
28.83309416579927
 49
14.41654708289963
 74
     0
 49
-3.604136770724908
 74
     0
 49
1.802068385362454
 74
     0
 49
-3.604136770724908
 74
     0
 49
1.802068385362454
 74
     0
 49
-3.604136770724908
 74
     0
  0
LTYPE
  5
206
330
5
100
AcDbSymbolTableRecord
100
AcDbLinetypeTableRecord
  2
AI-Linetype-1
 70
     0
  3
Adobe Illustrator Linetype No. 1
 72
    65
 73
     6
 40
28.83309416579927
 49
14.41654708289963
 74
     0
 49
-3.604136770724908
 74
     0
 49
1.802068385362454
 74
     0
 49
-3.604136770724908
 74
     0
 49
1.802068385362454
 74
     0
 49
-3.604136770724908
 74
     0
  0
LTYPE
  5
208
330
5
100
AcDbSymbolTableRecord
100
AcDbLinetypeTableRecord
  2
AI-Linetype-2
 70
     0
  3
Adobe Illustrator Linetype No. 2
 72
    65
 73
     6
 40
28.83309416579927
 49
14.41654708289963
 74
     0
 49
-3.604136770724908
 74
     0
 49
1.802068385362454
 74
     0
 49
-3.604136770724908
 74
     0
 49
1.802068385362454
 74
     0
 49
-3.604136770724908
 74
     0
  0
LTYPE
  5
20A
330
5
100
AcDbSymbolTableRecord
100
AcDbLinetypeTableRecord
  2
AI-Linetype-3
 70
     0
  3
Adobe Illustrator Linetype No. 3
 72
    65
 73
     6
 40
28.83309416579927
 49
14.41654708289963
 74
     0
 49
-3.604136770724908
 74
     0
 49
1.802068385362454
 74
     0
 49
-3.604136770724908
 74
     0
 49
1.802068385362454
 74
     0
 49
-3.604136770724908
 74
     0
  0
LTYPE
  5
20C
330
5
100
AcDbSymbolTableRecord
100
AcDbLinetypeTableRecord
  2
AI-Linetype-4
 70
     0
  3
Adobe Illustrator Linetype No. 4
 72
    65
 73
     6
 40
28.83309416579927
 49
14.41654708289963
 74
     0
 49
-3.604136770724908
 74
     0
 49
1.802068385362454
 74
     0
 49
-3.604136770724908
 74
     0
 49
1.802068385362454
 74
     0
 49
-3.604136770724908
 74
     0
  0
LTYPE
  5
20E
330
5
100
AcDbSymbolTableRecord
100
AcDbLinetypeTableRecord
  2
AI-Linetype-5
 70
     0
  3
Adobe Illustrator Linetype No. 5
 72
    65
 73
     6
 40
28.83309416579927
 49
14.41654708289963
 74
     0
 49
-3.604136770724908
 74
     0
 49
1.802068385362454
 74
     0
 49
-3.604136770724908
 74
     0
 49
1.802068385362454
 74
     0
 49
-3.604136770724908
 74
     0
  0
LTYPE
  5
210
330
5
100
AcDbSymbolTableRecord
100
AcDbLinetypeTableRecord
  2
AI-Linetype-6
 70
     0
  3
Adobe Illustrator Linetype No. 6
 72
    65
 73
     6
 40
28.83309416579927
 49
14.41654708289963
 74
     0
 49
-3.604136770724908
 74
     0
 49
1.802068385362454
 74
     0
 49
-3.604136770724908
 74
     0
 49
1.802068385362454
 74
     0
 49
-3.604136770724908
 74
     0
  0
LTYPE
  5
212
330
5
100
AcDbSymbolTableRecord
100
AcDbLinetypeTableRecord
  2
AI-Linetype-7
 70
     0
  3
Adobe Illustrator Linetype No. 7
 72
    65
 73
     6
 40
28.83309416579927
 49
14.41654708289963
 74
     0
 49
-3.604136770724908
 74
     0
 49
1.802068385362454
 74
     0
 49
-3.604136770724908
 74
     0
 49
1.802068385362454
 74
     0
 49
-3.604136770724908
 74
     0
  0
LTYPE
  5
214
330
5
100
AcDbSymbolTableRecord
100
AcDbLinetypeTableRecord
  2
AI-Linetype-8
 70
     0
  3
Adobe Illustrator Linetype No. 8
 72
    65
 73
     6
 40
28.83309416579927
 49
14.41654708289963
 74
     0
 49
-3.604136770724908
 74
     0
 49
1.802068385362454
 74
     0
 49
-3.604136770724908
 74
     0
 49
1.802068385362454
 74
     0
 49
-3.604136770724908
 74
     0
  0
LTYPE
  5
216
330
5
100
AcDbSymbolTableRecord
100
AcDbLinetypeTableRecord
  2
AI-Linetype-9
 70
     0
  3
Adobe Illustrator Linetype No. 9
 72
    65
 73
     6
 40
28.83309416579927
 49
14.41654708289963
 74
     0
 49
-3.604136770724908
 74
     0
 49
1.802068385362454
 74
     0
 49
-3.604136770724908
 74
     0
 49
1.802068385362454
 74
     0
 49
-3.604136770724908
 74
     0
  0
LTYPE
  5
218
330
5
100
AcDbSymbolTableRecord
100
AcDbLinetypeTableRecord
  2
AI-Linetype-10
 70
     0
  3
Adobe Illustrator Linetype No. 10
 72
    65
 73
     6
 40
28.83309416579927
 49
14.41654708289963
 74
     0
 49
-3.604136770724908
 74
     0
 49
1.802068385362454
 74
     0
 49
-3.604136770724908
 74
     0
 49
1.802068385362454
 74
     0
 49
-3.604136770724908
 74
     0
  0
LTYPE
  5
21A
330
5
100
AcDbSymbolTableRecord
100
AcDbLinetypeTableRecord
  2
AI-Linetype-11
 70
     0
  3
Adobe Illustrator Linetype No. 11
 72
    65
 73
     6
 40
28.83309416579927
 49
14.41654708289963
 74
     0
 49
-3.604136770724908
 74
     0
 49
1.802068385362454
 74
     0
 49
-3.604136770724908
 74
     0
 49
1.802068385362454
 74
     0
 49
-3.604136770724908
 74
     0
  0
LTYPE
  5
21C
330
5
100
AcDbSymbolTableRecord
100
AcDbLinetypeTableRecord
  2
AI-Linetype-12
 70
     0
  3
Adobe Illustrator Linetype No. 12
 72
    65
 73
     6
 40
28.83309416579927
 49
14.41654708289963
 74
     0
 49
-3.604136770724908
 74
     0
 49
1.802068385362454
 74
     0
 49
-3.604136770724908
 74
     0
 49
1.802068385362454
 74
     0
 49
-3.604136770724908
 74
     0
  0
LTYPE
  5
21E
330
5
100
AcDbSymbolTableRecord
100
AcDbLinetypeTableRecord
  2
AI-Linetype-13
 70
     0
  3
Adobe Illustrator Linetype No. 13
 72
    65
 73
     6
 40
28.83309416579927
 49
14.41654708289963
 74
     0
 49
-3.604136770724908
 74
     0
 49
1.802068385362454
 74
     0
 49
-3.604136770724908
 74
     0
 49
1.802068385362454
 74
     0
 49
-3.604136770724908
 74
     0
  0
LTYPE
  5
220
330
5
100
AcDbSymbolTableRecord
100
AcDbLinetypeTableRecord
  2
AI-Linetype-14
 70
     0
  3
Adobe Illustrator Linetype No. 14
 72
    65
 73
     6
 40
28.83309416579927
 49
14.41654708289963
 74
     0
 49
-3.604136770724908
 74
     0
 49
1.802068385362454
 74
     0
 49
-3.604136770724908
 74
     0
 49
1.802068385362454
 74
     0
 49
-3.604136770724908
 74
     0
  0
LTYPE
  5
222
330
5
100
AcDbSymbolTableRecord
100
AcDbLinetypeTableRecord
  2
AI-Linetype-15
 70
     0
  3
Adobe Illustrator Linetype No. 15
 72
    65
 73
     6
 40
28.83309416579927
 49
14.41654708289963
 74
     0
 49
-3.604136770724908
 74
     0
 49
1.802068385362454
 74
     0
 49
-3.604136770724908
 74
     0
 49
1.802068385362454
 74
     0
 49
-3.604136770724908
 74
     0
  0
LTYPE
  5
224
330
5
100
AcDbSymbolTableRecord
100
AcDbLinetypeTableRecord
  2
AI-Linetype-16
 70
     0
  3
Adobe Illustrator Linetype No. 16
 72
    65
 73
     6
 40
28.83309416579927
 49
14.41654708289963
 74
     0
 49
-3.604136770724908
 74
     0
 49
1.802068385362454
 74
     0
 49
-3.604136770724908
 74
     0
 49
1.802068385362454
 74
     0
 49
-3.604136770724908
 74
     0
  0
LTYPE
  5
226
330
5
100
AcDbSymbolTableRecord
100
AcDbLinetypeTableRecord
  2
AI-Linetype-17
 70
     0
  3
Adobe Illustrator Linetype No. 17
 72
    65
 73
     6
 40
28.83309416579927
 49
14.41654708289963
 74
     0
 49
-3.604136770724908
 74
     0
 49
1.802068385362454
 74
     0
 49
-3.604136770724908
 74
     0
 49
1.802068385362454
 74
     0
 49
-3.604136770724908
 74
     0
  0
LTYPE
  5
228
330
5
100
AcDbSymbolTableRecord
100
AcDbLinetypeTableRecord
  2
AI-Linetype-18
 70
     0
  3
Adobe Illustrator Linetype No. 18
 72
    65
 73
     6
 40
28.83309416579927
 49
14.41654708289963
 74
     0
 49
-3.604136770724908
 74
     0
 49
1.802068385362454
 74
     0
 49
-3.604136770724908
 74
     0
 49
1.802068385362454
 74
     0
 49
-3.604136770724908
 74
     0
  0
LTYPE
  5
22A
330
5
100
AcDbSymbolTableRecord
100
AcDbLinetypeTableRecord
  2
AI-Linetype-19
 70
     0
  3
Adobe Illustrator Linetype No. 19
 72
    65
 73
     6
 40
28.83309416579927
 49
14.41654708289963
 74
     0
 49
-3.604136770724908
 74
     0
 49
1.802068385362454
 74
     0
 49
-3.604136770724908
 74
     0
 49
1.802068385362454
 74
     0
 49
-3.604136770724908
 74
     0
  0
LTYPE
  5
22C
330
5
100
AcDbSymbolTableRecord
100
AcDbLinetypeTableRecord
  2
AI-Linetype-20
 70
     0
  3
Adobe Illustrator Linetype No. 20
 72
    65
 73
     6
 40
28.83309416579927
 49
14.41654708289963
 74
     0
 49
-3.604136770724908
 74
     0
 49
1.802068385362454
 74
     0
 49
-3.604136770724908
 74
     0
 49
1.802068385362454
 74
     0
 49
-3.604136770724908
 74
     0
  0
LTYPE
  5
22E
330
5
100
AcDbSymbolTableRecord
100
AcDbLinetypeTableRecord
  2
AI-Linetype-21
 70
     0
  3
Adobe Illustrator Linetype No. 21
 72
    65
 73
     6
 40
28.83309416579927
 49
14.41654708289963
 74
     0
 49
-3.604136770724908
 74
     0
 49
1.802068385362454
 74
     0
 49
-3.604136770724908
 74
     0
 49
1.802068385362454
 74
     0
 49
-3.604136770724908
 74
     0
  0
LTYPE
  5
230
330
5
100
AcDbSymbolTableRecord
100
AcDbLinetypeTableRecord
  2
AI-Linetype-22
 70
     0
  3
Adobe Illustrator Linetype No. 22
 72
    65
 73
     6
 40
28.83309416579927
 49
14.41654708289963
 74
     0
 49
-3.604136770724908
 74
     0
 49
1.802068385362454
 74
     0
 49
-3.604136770724908
 74
     0
 49
1.802068385362454
 74
     0
 49
-3.604136770724908
 74
     0
  0
LTYPE
  5
232
330
5
100
AcDbSymbolTableRecord
100
AcDbLinetypeTableRecord
  2
AI-Linetype-23
 70
     0
  3
Adobe Illustrator Linetype No. 23
 72
    65
 73
     6
 40
28.83309416579927
 49
14.41654708289963
 74
     0
 49
-3.604136770724908
 74
     0
 49
1.802068385362454
 74
     0
 49
-3.604136770724908
 74
     0
 49
1.802068385362454
 74
     0
 49
-3.604136770724908
 74
     0
  0
LTYPE
  5
234
330
5
100
AcDbSymbolTableRecord
100
AcDbLinetypeTableRecord
  2
AI-Linetype-24
 70
     0
  3
Adobe Illustrator Linetype No. 24
 72
    65
 73
     6
 40
28.83309416579927
 49
14.41654708289963
 74
     0
 49
-3.604136770724908
 74
     0
 49
1.802068385362454
 74
     0
 49
-3.604136770724908
 74
     0
 49
1.802068385362454
 74
     0
 49
-3.604136770724908
 74
     0
  0
LTYPE
  5
236
330
5
100
AcDbSymbolTableRecord
100
AcDbLinetypeTableRecord
  2
AI-Linetype-25
 70
     0
  3
Adobe Illustrator Linetype No. 25
 72
    65
 73
     6
 40
28.83309416579927
 49
14.41654708289963
 74
     0
 49
-3.604136770724908
 74
     0
 49
1.802068385362454
 74
     0
 49
-3.604136770724908
 74
     0
 49
1.802068385362454
 74
     0
 49
-3.604136770724908
 74
     0
  0
LTYPE
  5
238
330
5
100
AcDbSymbolTableRecord
100
AcDbLinetypeTableRecord
  2
AI-Linetype-26
 70
     0
  3
Adobe Illustrator Linetype No. 26
 72
    65
 73
     6
 40
28.83309416579927
 49
14.41654708289963
 74
     0
 49
-3.604136770724908
 74
     0
 49
1.802068385362454
 74
     0
 49
-3.604136770724908
 74
     0
 49
1.802068385362454
 74
     0
 49
-3.604136770724908
 74
     0
  0
LTYPE
  5
23A
330
5
100
AcDbSymbolTableRecord
100
AcDbLinetypeTableRecord
  2
AI-Linetype-27
 70
     0
  3
Adobe Illustrator Linetype No. 27
 72
    65
 73
     6
 40
28.83309416579927
 49
14.41654708289963
 74
     0
 49
-3.604136770724908
 74
     0
 49
1.802068385362454
 74
     0
 49
-3.604136770724908
 74
     0
 49
1.802068385362454
 74
     0
 49
-3.604136770724908
 74
     0
  0
LTYPE
  5
23C
330
5
100
AcDbSymbolTableRecord
100
AcDbLinetypeTableRecord
  2
AI-Linetype-28
 70
     0
  3
Adobe Illustrator Linetype No. 28
 72
    65
 73
     6
 40
28.83309416579927
 49
14.41654708289963
 74
     0
 49
-3.604136770724908
 74
     0
 49
1.802068385362454
 74
     0
 49
-3.604136770724908
 74
     0
 49
1.802068385362454
 74
     0
 49
-3.604136770724908
 74
     0
  0
LTYPE
  5
23F
330
5
100
AcDbSymbolTableRecord
100
AcDbLinetypeTableRecord
  2
AI-Linetype-29
 70
     0
  3
Adobe Illustrator Linetype No. 29
 72
    65
 73
     4
 40
19.1019245484069
 49
18.02068351718943
 74
     0
 49
-0.3604136770724909
 74
     0
 49
0.3604136770724909
 74
     0
 49
-0.3604136770724909
 74
     0
  0
LTYPE
  5
241
330
5
100
AcDbSymbolTableRecord
100
AcDbLinetypeTableRecord
  2
AI-Linetype-30
 70
     0
  3
Adobe Illustrator Linetype No. 30
 72
    65
 73
     4
 40
19.1019245484069
 49
18.02068351718943
 74
     0
 49
-0.3604136770724909
 74
     0
 49
0.3604136770724909
 74
     0
 49
-0.3604136770724909
 74
     0
  0
LTYPE
  5
243
330
5
100
AcDbSymbolTableRecord
100
AcDbLinetypeTableRecord
  2
AI-Linetype-31
 70
     0
  3
Adobe Illustrator Linetype No. 31
 72
    65
 73
     4
 40
19.1019245484069
 49
18.02068351718943
 74
     0
 49
-0.3604136770724909
 74
     0
 49
0.3604136770724909
 74
     0
 49
-0.3604136770724909
 74
     0
  0
LTYPE
  5
245
330
5
100
AcDbSymbolTableRecord
100
AcDbLinetypeTableRecord
  2
AI-Linetype-32
 70
     0
  3
Adobe Illustrator Linetype No. 32
 72
    65
 73
     4
 40
19.1019245484069
 49
18.02068351718943
 74
     0
 49
-0.3604136770724909
 74
     0
 49
0.3604136770724909
 74
     0
 49
-0.3604136770724909
 74
     0
  0
ENDTAB
  0
TABLE
  2
LAYER
  5
2
330
0
100
AcDbSymbolTable
 70
     7
  0
LAYER
  5
54
330
2
100
AcDbSymbolTableRecord
100
AcDbLayerTableRecord
  2
0
 70
     0
 62
     7
  6
Continuous
370
    -3
390
F
347
21
348
0
  0
LAYER
  5
78
330
2
100
AcDbSymbolTableRecord
100
AcDbLayerTableRecord
  2
FLAME
 70
     0
 62
     7
  6
Continuous
370
     0
390
F
347
21
348
0
  0
LAYER
  5
80
330
2
100
AcDbSymbolTableRecord
100
AcDbLayerTableRecord
  2
SPEC
 70
     0
 62
     7
  6
Continuous
370
     0
390
F
347
21
348
0
  0
LAYER
  5
8C
330
2
100
AcDbSymbolTableRecord
100
AcDbLayerTableRecord
  2
HONTAI
 70
     0
 62
     7
  6
Continuous
370
     0
390
F
347
21
348
0
  0
LAYER
  5
1E3
330
2
100
AcDbSymbolTableRecord
100
AcDbLayerTableRecord
  2
0-HONTAI
 70
     0
 62
     7
  6
Continuous
370
     0
390
F
347
21
348
0
  0
LAYER
  5
202
330
2
100
AcDbSymbolTableRecord
100
AcDbLayerTableRecord
  2
TOUGU
 70
     0
 62
     7
  6
Continuous
370
     0
390
F
347
21
348
0
  0
LAYER
  5
23D
330
2
100
AcDbSymbolTableRecord
100
AcDbLayerTableRecord
  2
CL
 70
     0
 62
     7
  6
Continuous
370
     0
390
F
347
21
348
0
  0
ENDTAB
  0
TABLE
  2
STYLE
  5
3
330
0
100
AcDbSymbolTable
 70
     2
  0
STYLE
  5
55
330
3
100
AcDbSymbolTableRecord
100
AcDbTextStyleTableRecord
  2
Standard
 70
     0
 40
0.0
 41
1.0
 50
0.0
 71
     0
 42
0.2
  3
txt
  4

  0
STYLE
  5
5A
330
3
100
AcDbSymbolTableRecord
100
AcDbTextStyleTableRecord
  2
Annotative
 70
     0
 40
0.0
 41
1.0
 50
0.0
 71
     0
 42
0.2
  3
txt
  4

1001
AcadAnnotative
1000
AnnotativeData
1002
{
1070
     1
1070
     1
1002
}
  0
ENDTAB
  0
TABLE
  2
VIEW
  5
6
330
0
100
AcDbSymbolTable
 70
     0
  0
ENDTAB
  0
TABLE
  2
UCS
  5
7
330
0
100
AcDbSymbolTable
 70
     0
  0
ENDTAB
  0
TABLE
  2
APPID
  5
9
330
0
100
AcDbSymbolTable
 70
     2
  0
APPID
  5
56
330
9
100
AcDbSymbolTableRecord
100
AcDbRegAppTableRecord
  2
ACAD
 70
     0
  0
APPID
  5
5E
330
9
100
AcDbSymbolTableRecord
100
AcDbRegAppTableRecord
  2
AcadAnnotative
 70
     0
  0
ENDTAB
  0
TABLE
  2
DIMSTYLE
  5
A
330
0
100
AcDbSymbolTable
 70
     2
100
AcDbDimStyleTable
 71
     0
  0
DIMSTYLE
105
58
330
A
100
AcDbSymbolTableRecord
100
AcDbDimStyleTableRecord
  2
Standard
 70
     0
340
55
  0
DIMSTYLE
105
59
330
A
100
AcDbSymbolTableRecord
100
AcDbDimStyleTableRecord
  2
Annotative
 70
     0
340
55
1001
AcadAnnotative
1000
AnnotativeData
1002
{
1070
     1
1070
     1
1002
}
  0
ENDTAB
  0
TABLE
  2
BLOCK_RECORD
  5
1
330
0
100
AcDbSymbolTable
 70
     2
  0
BLOCK_RECORD
  5
70
330
1
100
AcDbSymbolTableRecord
100
AcDbBlockTableRecord
  2
*Model_Space
340
73
 70
     0
280
     1
281
     0
  0
BLOCK_RECORD
  5
6C
330
1
100
AcDbSymbolTableRecord
100
AcDbBlockTableRecord
  2
*Paper_Space
340
6F
 70
     0
280
     1
281
     0
  0
BLOCK_RECORD
  5
74
330
1
100
AcDbSymbolTableRecord
100
AcDbBlockTableRecord
  2
*Paper_Space0
340
77
 70
     0
280
     1
281
     0
  0
BLOCK_RECORD
  5
81
330
1
100
AcDbSymbolTableRecord
100
AcDbBlockTableRecord
  2
Block_0
340
0
102
{BLKREFS
331
82
102
}
 70
     0
280
     1
281
     0
  0
ENDTAB
  0
ENDSEC
  0
SECTION
  2
BLOCKS
  0
BLOCK
  5
71
330
70
100
AcDbEntity
  8
0
100
AcDbBlockBegin
  2
*Model_Space
 70
     0
 10
0.0
 20
0.0
 30
0.0
  3
*Model_Space
  1

  0
ENDBLK
  5
72
330
70
100
AcDbEntity
  8
0
100
AcDbBlockEnd
  0
BLOCK
  5
6D
330
6C
100
AcDbEntity
 67
     1
  8
0
100
AcDbBlockBegin
  2
*Paper_Space
 70
     0
 10
0.0
 20
0.0
 30
0.0
  3
*Paper_Space
  1

  0
ENDBLK
  5
6E
330
6C
100
AcDbEntity
 67
     1
  8
0
100
AcDbBlockEnd
  0
BLOCK
  5
75
330
74
100
AcDbEntity
 67
     1
  8
0
100
AcDbBlockBegin
  2
*Paper_Space0
 70
     0
 10
0.0
 20
0.0
 30
0.0
  3
*Paper_Space0
  1

  0
ENDBLK
  5
76
330
74
100
AcDbEntity
 67
     1
  8
0
100
AcDbBlockEnd
  0
BLOCK
  5
83
330
81
100
AcDbEntity
  8
0
100
AcDbBlockBegin
  2
Block_0
 70
     0
 10
0.0
 20
0.0
 30
0.0
  3
Block_0
  1

  0
MTEXT
  5
85
330
81
100
AcDbEntity
  8
SPEC
100
AcDbMText
 10
182.7893594920631
 20
23.09140113677137
 30
0.0
 40
0.2
 41
0.0
 46
0.0
 71
     7
 72
     1
  1
\C9;\c12632256;\FKozuka Gothic Pr6N R|b0|i0|c128;\H7.992533;\W1.000000;E26 LED
 73
     1
 44
1.0
  0
MTEXT
  5
86
330
81
100
AcDbEntity
  8
SPEC
100
AcDbMText
 10
224.6259746413804
 20
23.09140113677137
 30
0.0
 40
0.2
 41
0.0
 46
0.0
 71
     7
 72
     1
  1
\C9;\c12632256;\FMS PGothic|b0|i0|c128;\H7.992533;\W1.000000;電球（
 73
     1
 44
1.0
  0
MTEXT
  5
87
330
81
100
AcDbEntity
  8
SPEC
100
AcDbMText
 10
253.6897260243597
 20
23.09140113677137
 30
0.0
 40
0.2
 41
0.0
 46
0.0
 71
     7
 72
     1
  1
\C9;\c12632256;\FKozuka Gothic Pr6N R|b0|i0|c128;\H7.992533;\W1.000000;100W
 73
     1
 44
1.0
  0
MTEXT
  5
88
330
81
100
AcDbEntity
  8
SPEC
100
AcDbMText
 10
282.9956891517988
 20
23.09140113677137
 30
0.0
 40
0.2
 41
0.0
 46
0.0
 71
     7
 72
     1
  1
\C9;\c12632256;\FMS PGothic|b0|i0|c128;\H7.992533;\W1.000000;相当 電球色 全方向
 73
     1
 44
1.0
  0
MTEXT
  5
89
330
81
100
AcDbEntity
  8
SPEC
100
AcDbMText
 10
383.0840242911648
 20
23.09140113677137
 30
0.0
 40
0.2
 41
0.0
 46
0.0
 71
     7
 72
     1
  1
\C9;\c12632256;\FKozuka Gothic Pr6N R|b0|i0|c128;\H7.992533;\W1.000000;/
 73
     1
 44
1.0
  0
MTEXT
  5
8A
330
81
100
AcDbEntity
  8
SPEC
100
AcDbMText
 10
391.0765166258637
 20
23.09140113677137
 30
0.0
 40
0.2
 41
0.0
 46
0.0
 71
     7
 72
     1
  1
\C9;\c12632256;\FMS PGothic|b0|i0|c128;\H7.992533;\W1.000000;広配光タイプ）
 73
     1
 44
1.0
  0
ENDBLK
  5
84
330
81
100
AcDbEntity
  8
0
100
AcDbBlockEnd
  0
ENDSEC
  0
SECTION
  2
ENTITIES
  0
LINE
  5
79
330
70
100
AcDbEntity
  8
FLAME
 62
     2
420
 16776960
370
    25
100
AcDbLine
 10
501.9523808268923
 20
380.9999999047501
 30
0.0
 11
501.9523808268923
 21
0.0
 31
0.0
  0
LINE
  5
7A
330
70
100
AcDbEntity
  8
FLAME
 62
     2
420
 16776960
370
    25
100
AcDbLine
 10
175.3809523371067
 20
0.0
 30
0.0
 11
175.3809523371067
 21
380.9999999047501
 31
0.0
  0
LINE
  5
7B
330
70
100
AcDbEntity
  8
FLAME
 62
     2
420
 16776960
370
    25
100
AcDbLine
 10
501.9523808268923
 20
0.0
 30
0.0
 11
175.3809523371067
 21
0.0
 31
0.0
  0
LINE
  5
7C
330
70
100
AcDbEntity
  8
FLAME
 62
     2
420
 16776960
370
    25
100
AcDbLine
 10
501.9523808268923
 20
18.14285713832115
 30
0.0
 11
175.3809523371067
 21
18.14285713832115
 31
0.0
  0
LINE
  5
7D
330
70
100
AcDbEntity
  8
FLAME
 62
     2
420
 16776960
370
    25
100
AcDbLine
 10
501.9523808268923
 20
36.28571427664231
 30
0.0
 11
175.3809523371067
 21
36.28571427664231
 31
0.0
  0
LINE
  5
7E
330
70
100
AcDbEntity
  8
FLAME
 62
     2
420
 16776960
370
    25
100
AcDbLine
 10
501.9523808268923
 20
54.42857141496411
 30
0.0
 11
175.3809523371067
 21
54.42857141496411
 31
0.0
  0
LINE
  5
7F
330
70
100
AcDbEntity
  8
FLAME
 62
     2
420
 16776960
370
    25
100
AcDbLine
 10
501.9523808268923
 20
380.9999999047501
 30
0.0
 11
175.3809523371067
 21
380.9999999047501
 31
0.0
  0
INSERT
  5
82
330
70
100
AcDbEntity
  8
SPEC
100
AcDbBlockReference
  2
Block_0
 10
0.0
 20
0.0
 30
0.0
  0
MTEXT
  5
8B
330
70
100
AcDbEntity
  8
SPEC
100
AcDbMText
 10
183.0583783857675
 20
40.69478669738653
 30
0.0
 40
0.2
 41
0.0
 46
0.0
 71
     7
 72
     1
  1
\C9;\c12632256;\FKozuka Gothic Pr6N R|b0|i0|c128;\H9.071429;\W1.000000;KT 375MLO
 73
     1
 44
1.0
  0
LINE
  5
8D
330
70
100
AcDbEntity
  8
HONTAI
 62
     2
420
 16776960
370
    25
100
AcDbLine
 10
301.3396767102726
 20
143.5655651215969
 30
0.0
 11
301.3396767102726
 21
167.3637395156565
 31
0.0
  0
LINE
  5
8E
330
70
100
AcDbEntity
  8
HONTAI
 62
     2
420
 16776960
370
    25
100
AcDbLine
 10
348.936025498364
 20
143.5655651215969
 30
0.0
 11
348.936025498364
 21
167.3637395156565
 31
0.0
  0
LINE
  5
8F
330
70
100
AcDbEntity
  8
HONTAI
 62
     2
420
 16776960
370
    25
100
AcDbLine
 10
458.3988748649459
 20
191.4173210861801
 30
0.0
 11
458.3988748649459
 21
157.6003859180889
 31
0.0
  0
LINE
  5
90
330
70
100
AcDbEntity
  8
HONTAI
 62
     2
420
 16776960
370
    25
100
AcDbLine
 10
460.8397132643379
 20
191.4173210861801
 30
0.0
 11
460.8397132643379
 21
157.6003859180889
 31
0.0
  0
LINE
  5
91
330
70
100
AcDbEntity
  8
HONTAI
 62
     2
420
 16776960
370
    25
100
AcDbLine
 10
348.936025498364
 20
146.2098067209379
 30
0.0
 11
385.2006887845196
 21
146.2098067209379
 31
0.0
  0
LINE
  5
92
330
70
100
AcDbEntity
  8
HONTAI
 62
     2
420
 16776960
370
    25
100
AcDbLine
 10
387.4096551945681
 20
146.2098067209379
 30
0.0
 11
397.8373547701809
 21
146.2098067209379
 31
0.0
  0
LINE
  5
93
330
70
100
AcDbEntity
  8
HONTAI
 62
     2
420
 16776960
370
    25
100
AcDbLine
 10
424.2797707635585
 20
146.2098067209379
 30
0.0
 11
435.7702181944672
 21
146.2098067209379
 31
0.0
  0
LINE
  5
94
330
70
100
AcDbEntity
  8
HONTAI
 62
     2
420
 16776960
370
    25
100
AcDbLine
 10
437.9791846045189
 20
146.2098067209379
 30
0.0
 11
449.4491340671806
 21
146.2098067209379
 31
0.0
  0
LINE
  5
95
330
70
100
AcDbEntity
  8
HONTAI
 62
     2
420
 16776960
370
    25
100
AcDbLine
 10
348.936025498364
 20
148.6506451203229
 30
0.0
 11
385.8270056835724
 21
148.6506451203229
 31
0.0
  0
LINE
  5
96
330
70
100
AcDbEntity
  8
HONTAI
 62
     2
420
 16776960
370
    25
100
AcDbLine
 10
388.035972093635
 20
148.6506451203229
 30
0.0
 11
397.8373547701809
 21
148.6506451203229
 31
0.0
  0
LINE
  5
97
330
70
100
AcDbEntity
  8
HONTAI
 62
     2
420
 16776960
370
    25
100
AcDbLine
 10
424.2797707635585
 20
148.6506451203229
 30
0.0
 11
436.3965350935199
 21
148.6506451203229
 31
0.0
  0
LINE
  5
98
330
70
100
AcDbEntity
  8
HONTAI
 62
     2
420
 16776960
370
    25
100
AcDbLine
 10
438.6055015035723
 20
148.6506451203229
 30
0.0
 11
449.4491340671806
 21
148.6506451203229
 31
0.0
  0
SPLINE
  5
99
330
70
100
AcDbEntity
  8
HONTAI
 62
     2
420
 16776960
370
    25
100
AcDbSpline
210
0.0
220
0.0
230
1.0
 70
     8
 71
     3
 72
     8
 73
     4
 74
     0
 42
0.0000000001
 43
0.0000000001
 40
0.0
 40
0.0
 40
0.0
 40
0.0
 40
1.0
 40
1.0
 40
1.0
 40
1.0
 10
449.4491340671806
 20
148.6506451203261
 30
0.0
 10
454.3919394247228
 20
148.6506451203261
 30
0.0
 10
458.3988748649427
 20
152.657580560546
 30
0.0
 10
458.3988748649427
 20
157.6003859180889
 30
0.0
  0
SPLINE
  5
9A
330
70
100
AcDbEntity
  8
HONTAI
 62
     2
420
 16776960
370
    25
100
AcDbSpline
210
0.0
220
0.0
230
1.0
 70
     8
 71
     3
 72
     8
 73
     4
 74
     0
 42
0.0000000001
 43
0.0000000001
 40
0.0
 40
0.0
 40
0.0
 40
0.0
 40
1.0
 40
1.0
 40
1.0
 40
1.0
 10
449.4491340671806
 20
146.2098067209366
 30
0.0
 10
455.7399772495075
 20
146.2098067209366
 30
0.0
 10
460.8397132643329
 20
151.3095427357619
 30
0.0
 10
460.8397132643329
 20
157.6003859180889
 30
0.0
  0
SPLINE
  5
9B
330
70
100
AcDbEntity
  8
HONTAI
 62
     2
420
 16776960
370
    25
100
AcDbSpline
210
0.0
220
0.0
230
1.0
 70
     8
 71
     3
 72
    11
 73
     7
 74
     0
 42
0.0000000001
 43
0.0000000001
 40
0.0
 40
0.0
 40
0.0
 40
0.0
 40
1.0
 40
1.0
 40
1.0
 40
2.0
 40
2.0
 40
2.0
 40
2.0
 10
301.3396767102813
 20
143.5655651215706
 30
0.0
 10
301.3396767102813
 20
140.9097981656749
 30
0.0
 10
311.9944823126837
 20
138.7568736690012
 30
0.0
 10
325.1378511043316
 20
138.7568736690012
 30
0.0
 10
338.2812198959796
 20
138.7568736690012
 30
0.0
 10
348.936025498382
 20
140.9097981656749
 30
0.0
 10
348.936025498382
 20
143.5655651215706
 30
0.0
  0
SPLINE
  5
9C
330
70
100
AcDbEntity
  8
HONTAI
 62
     2
420
 16776960
370
    25
100
AcDbSpline
210
0.0
220
0.0
230
1.0
 70
     8
 71
     3
 72
    11
 73
     7
 74
     0
 42
0.0000000001
 43
0.0000000001
 40
0.0
 40
0.0
 40
0.0
 40
0.0
 40
1.0
 40
1.0
 40
1.0
 40
2.0
 40
2.0
 40
2.0
 40
2.0
 10
301.8093576805503
 20
140.7214528652832
 30
0.0
 10
301.8093576805503
 20
138.0656859093875
 30
0.0
 10
312.2538799498492
 20
135.9127614127131
 30
0.0
 10
325.1378511043316
 20
135.9127614127131
 30
0.0
 10
338.0218222588141
 20
135.9127614127131
 30
0.0
 10
348.4663445281129
 20
138.0656859093875
 30
0.0
 10
348.4663445281129
 20
140.7214528652832
 30
0.0
  0
LINE
  5
9D
330
70
100
AcDbEntity
  8
HONTAI
 62
     2
420
 16776960
370
    25
100
AcDbLine
 10
301.8093576805442
 20
140.721452865271
 30
0.0
 11
301.8093576805442
 21
142.6149206699716
 31
0.0
  0
LINE
  5
9E
330
70
100
AcDbEntity
  8
HONTAI
 62
     2
420
 16776960
370
    25
100
AcDbLine
 10
348.4648251876755
 20
140.6665722413561
 30
0.0
 11
348.4648251876755
 21
142.6133996715122
 31
0.0
  0
LINE
  5
9F
330
70
100
AcDbEntity
  8
HONTAI
 62
     8
420
  8421504
370
    25
100
AcDbLine
 10
302.8906261098809
 20
296.579126858558
 30
0.0
 11
280.5798829532105
 21
283.7756856741683
 31
0.0
  0
LINE
  5
A0
330
70
100
AcDbEntity
  8
HONTAI
 62
     8
420
  8421504
370
    25
100
AcDbLine
 10
280.5798829532105
 20
283.7756856741683
 30
0.0
 11
266.4275730765139
 21
266.9313581783698
 31
0.0
  0
LINE
  5
A1
330
70
100
AcDbEntity
  8
HONTAI
 62
     8
420
  8421504
370
    25
100
AcDbLine
 10
266.4275730765139
 20
266.9313581783698
 30
0.0
 11
258.0000796169677
 21
244.6841331839299
 31
0.0
  0
LINE
  5
A2
330
70
100
AcDbEntity
  8
HONTAI
 62
     8
420
  8421504
370
    25
100
AcDbLine
 10
258.0000796169677
 20
244.6841331839299
 30
0.0
 11
258.0000796169677
 21
219.2587331902811
 31
0.0
  0
LINE
  5
A3
330
70
100
AcDbEntity
  8
HONTAI
 62
     8
420
  8421504
370
    25
100
AcDbLine
 10
319.3218691884957
 20
283.7756856741683
 30
0.0
 11
321.2980152033233
 21
266.9313581783698
 31
0.0
  0
LINE
  5
A4
330
70
100
AcDbEntity
  8
HONTAI
 62
     8
420
  8421504
370
    25
100
AcDbLine
 10
325.135261661659
 20
283.7756856741683
 30
0.0
 11
322.3215369841305
 21
292.9917999310018
 31
0.0
  0
LINE
  5
A5
330
70
100
AcDbEntity
  8
HONTAI
 62
     8
420
  8421504
370
    25
100
AcDbLine
 10
322.3215369841305
 20
292.9917999310018
 30
0.0
 11
319.3218691884957
 21
283.7756856741683
 31
0.0
  0
LINE
  5
A6
330
70
100
AcDbEntity
  8
HONTAI
 62
     8
420
  8421504
370
    25
100
AcDbLine
 10
325.135261661659
 20
283.7756856741683
 30
0.0
 11
321.2980152033233
 21
266.9313581783698
 31
0.0
  0
LINE
  5
A7
330
70
100
AcDbEntity
  8
HONTAI
 62
     8
420
  8421504
370
    25
100
AcDbLine
 10
321.2980152033233
 20
266.9313581783698
 30
0.0
 11
325.135261661659
 21
244.6841331839299
 31
0.0
  0
LINE
  5
A8
330
70
100
AcDbEntity
  8
HONTAI
 62
     8
420
  8421504
370
    25
100
AcDbLine
 10
321.2980152033233
 20
266.9313581783698
 30
0.0
 11
316.3746134379404
 21
244.6841331839299
 31
0.0
  0
LINE
  5
A9
330
70
100
AcDbEntity
  8
HONTAI
 62
     8
420
  8421504
370
    25
100
AcDbLine
 10
316.3746134379404
 20
244.6841331839299
 30
0.0
 11
316.3746134379404
 21
219.2587331902811
 31
0.0
  0
LINE
  5
AA
330
70
100
AcDbEntity
  8
HONTAI
 62
     8
420
  8421504
370
    25
100
AcDbLine
 10
307.7613171976617
 20
244.6841331839299
 30
0.0
 11
307.7613171976617
 21
219.2587331902811
 31
0.0
  0
LINE
  5
AB
330
70
100
AcDbEntity
  8
HONTAI
 62
     8
420
  8421504
370
    25
100
AcDbLine
 10
299.445338270197
 20
244.6841331839299
 30
0.0
 11
299.445338270197
 21
219.2587331902811
 31
0.0
  0
LINE
  5
AC
330
70
100
AcDbEntity
  8
HONTAI
 62
     8
420
  8421504
370
    25
100
AcDbLine
 10
291.5689653606429
 20
244.6841331839299
 30
0.0
 11
291.5689653606429
 21
219.2587331902811
 31
0.0
  0
LINE
  5
AD
330
70
100
AcDbEntity
  8
HONTAI
 62
     8
420
  8421504
370
    25
100
AcDbLine
 10
284.2669653932107
 20
244.6841331839299
 30
0.0
 11
284.2669653932107
 21
219.2587331902811
 31
0.0
  0
LINE
  5
AE
330
70
100
AcDbEntity
  8
HONTAI
 62
     8
420
  8421504
370
    25
100
AcDbLine
 10
277.6642776118698
 20
244.6841331839299
 30
0.0
 11
277.6642776118698
 21
219.2587331902811
 31
0.0
  0
LINE
  5
AF
330
70
100
AcDbEntity
  8
HONTAI
 62
     8
420
  8421504
370
    25
100
AcDbLine
 10
271.8738758351254
 20
244.6841331839299
 30
0.0
 11
271.8738758351254
 21
219.2587331902811
 31
0.0
  0
LINE
  5
B0
330
70
100
AcDbEntity
  8
HONTAI
 62
     8
420
  8421504
370
    25
100
AcDbLine
 10
266.9948354427995
 20
244.6841331839299
 30
0.0
 11
266.9948354427995
 21
219.2587331902811
 31
0.0
  0
LINE
  5
B1
330
70
100
AcDbEntity
  8
HONTAI
 62
     8
420
  8421504
370
    25
100
AcDbLine
 10
263.1106381687344
 20
244.6841331839299
 30
0.0
 11
263.1106381687344
 21
219.2587331902811
 31
0.0
  0
LINE
  5
B2
330
70
100
AcDbEntity
  8
HONTAI
 62
     8
420
  8421504
370
    25
100
AcDbLine
 10
260.2877437051938
 20
244.6841331839299
 30
0.0
 11
260.2877437051938
 21
219.2587331902811
 31
0.0
  0
LINE
  5
B3
330
70
100
AcDbEntity
  8
HONTAI
 62
     8
420
  8421504
370
    25
100
AcDbLine
 10
258.5744525590888
 20
244.6841331839299
 30
0.0
 11
258.5744525590888
 21
219.2587331902811
 31
0.0
  0
LINE
  5
B4
330
70
100
AcDbEntity
  8
HONTAI
 62
     8
420
  8421504
370
    25
100
AcDbLine
 10
316.3746134379404
 20
244.6841331839299
 30
0.0
 11
313.684044058211
 21
266.9313581783698
 31
0.0
  0
LINE
  5
B5
330
70
100
AcDbEntity
  8
HONTAI
 62
     8
420
  8421504
370
    25
100
AcDbLine
 10
313.684044058211
 20
266.9313581783698
 30
0.0
 11
307.7613171976617
 21
244.6841331839299
 31
0.0
  0
LINE
  5
B6
330
70
100
AcDbEntity
  8
HONTAI
 62
     8
420
  8421504
370
    25
100
AcDbLine
 10
307.7613171976617
 20
244.6841331839299
 30
0.0
 11
306.2660507272657
 21
266.9313581783698
 31
0.0
  0
LINE
  5
B7
330
70
100
AcDbEntity
  8
HONTAI
 62
     8
420
  8421504
370
    25
100
AcDbLine
 10
306.2660507272657
 20
266.9313581783698
 30
0.0
 11
299.445338270197
 21
244.6841331839299
 31
0.0
  0
LINE
  5
B8
330
70
100
AcDbEntity
  8
HONTAI
 62
     8
420
  8421504
370
    25
100
AcDbLine
 10
299.445338270197
 20
244.6841331839299
 30
0.0
 11
299.1709591330238
 21
266.9313581783698
 31
0.0
  0
LINE
  5
B9
330
70
100
AcDbEntity
  8
HONTAI
 62
     8
420
  8421504
370
    25
100
AcDbLine
 10
299.1709591330238
 20
266.9313581783698
 30
0.0
 11
291.5689653606429
 21
244.6841331839299
 31
0.0
  0
LINE
  5
BA
330
70
100
AcDbEntity
  8
HONTAI
 62
     8
420
  8421504
370
    25
100
AcDbLine
 10
291.5689653606429
 20
244.6841331839299
 30
0.0
 11
292.5201682597763
 21
266.9313581783698
 31
0.0
  0
LINE
  5
BB
330
70
100
AcDbEntity
  8
HONTAI
 62
     8
420
  8421504
370
    25
100
AcDbLine
 10
292.5201682597763
 20
266.9313581783698
 30
0.0
 11
284.2669653932107
 21
244.6841331839299
 31
0.0
  0
LINE
  5
BC
330
70
100
AcDbEntity
  8
HONTAI
 62
     8
420
  8421504
370
    25
100
AcDbLine
 10
284.2669653932107
 20
244.6841331839299
 30
0.0
 11
286.427474983334
 21
266.9313581783698
 31
0.0
  0
LINE
  5
BD
330
70
100
AcDbEntity
  8
HONTAI
 62
     8
420
  8421504
370
    25
100
AcDbLine
 10
286.427474983334
 20
266.9313581783698
 30
0.0
 11
277.6642776118698
 21
244.6841331839299
 31
0.0
  0
LINE
  5
BE
330
70
100
AcDbEntity
  8
HONTAI
 62
     8
420
  8421504
370
    25
100
AcDbLine
 10
277.6642776118698
 20
244.6841331839299
 30
0.0
 11
280.9971269748503
 21
266.9313581783698
 31
0.0
  0
LINE
  5
BF
330
70
100
AcDbEntity
  8
HONTAI
 62
     8
420
  8421504
370
    25
100
AcDbLine
 10
280.9971269748503
 20
266.9313581783698
 30
0.0
 11
271.8738758351254
 21
244.6841331839299
 31
0.0
  0
LINE
  5
C0
330
70
100
AcDbEntity
  8
HONTAI
 62
     8
420
  8421504
370
    25
100
AcDbLine
 10
271.8738758351254
 20
244.6841331839299
 30
0.0
 11
276.3220389943764
 21
266.9313581783698
 31
0.0
  0
LINE
  5
C1
330
70
100
AcDbEntity
  8
HONTAI
 62
     8
420
  8421504
370
    25
100
AcDbLine
 10
276.3220389943764
 20
266.9313581783698
 30
0.0
 11
266.9948354427995
 21
244.6841331839299
 31
0.0
  0
LINE
  5
C2
330
70
100
AcDbEntity
  8
HONTAI
 62
     8
420
  8421504
370
    25
100
AcDbLine
 10
266.9948354427995
 20
244.6841331839299
 30
0.0
 11
272.4822030933786
 21
266.9313581783698
 31
0.0
  0
LINE
  5
C3
330
70
100
AcDbEntity
  8
HONTAI
 62
     8
420
  8421504
370
    25
100
AcDbLine
 10
272.4822030933786
 20
266.9313581783698
 30
0.0
 11
263.1106381687344
 21
244.6841331839299
 31
0.0
  0
LINE
  5
C4
330
70
100
AcDbEntity
  8
HONTAI
 62
     8
420
  8421504
370
    25
100
AcDbLine
 10
263.1106381687344
 20
244.6841331839299
 30
0.0
 11
269.5433199287691
 21
266.9313581783698
 31
0.0
  0
LINE
  5
C5
330
70
100
AcDbEntity
  8
HONTAI
 62
     8
420
  8421504
370
    25
100
AcDbLine
 10
269.5433199287691
 20
266.9313581783698
 30
0.0
 11
260.2877437051938
 21
244.6841331839299
 31
0.0
  0
LINE
  5
C6
330
70
100
AcDbEntity
  8
HONTAI
 62
     8
420
  8421504
370
    25
100
AcDbLine
 10
260.2877437051938
 20
244.6841331839299
 30
0.0
 11
267.5556746062777
 21
266.9313581783698
 31
0.0
  0
LINE
  5
C7
330
70
100
AcDbEntity
  8
HONTAI
 62
     8
420
  8421504
370
    25
100
AcDbLine
 10
267.5556746062777
 20
266.9313581783698
 30
0.0
 11
258.5744525590888
 21
244.6841331839299
 31
0.0
  0
LINE
  5
C8
330
70
100
AcDbEntity
  8
HONTAI
 62
     8
420
  8421504
370
    25
100
AcDbLine
 10
258.5744525590888
 20
244.6841331839299
 30
0.0
 11
266.5532762884556
 21
266.9313581783698
 31
0.0
  0
LINE
  5
C9
330
70
100
AcDbEntity
  8
HONTAI
 62
     8
420
  8421504
370
    25
100
AcDbLine
 10
266.5532762884556
 20
266.9313581783698
 30
0.0
 11
258.0000796169677
 21
244.6841331839299
 31
0.0
  0
LINE
  5
CA
330
70
100
AcDbEntity
  8
HONTAI
 62
     8
420
  8421504
370
    25
100
AcDbLine
 10
319.3218691884957
 20
283.7756856741683
 30
0.0
 11
313.684044058211
 21
266.9313581783698
 31
0.0
  0
LINE
  5
CB
330
70
100
AcDbEntity
  8
HONTAI
 62
     8
420
  8421504
370
    25
100
AcDbLine
 10
313.684044058211
 20
266.9313581783698
 30
0.0
 11
313.5965523060442
 21
283.7756856741683
 31
0.0
  0
LINE
  5
CC
330
70
100
AcDbEntity
  8
HONTAI
 62
     8
420
  8421504
370
    25
100
AcDbLine
 10
313.5965523060442
 20
283.7756856741683
 30
0.0
 11
306.2660507272657
 21
266.9313581783698
 31
0.0
  0
LINE
  5
CD
330
70
100
AcDbEntity
  8
HONTAI
 62
     8
420
  8421504
370
    25
100
AcDbLine
 10
306.2660507272657
 20
266.9313581783698
 30
0.0
 11
308.0862549130533
 21
283.7756856741683
 31
0.0
  0
LINE
  5
CE
330
70
100
AcDbEntity
  8
HONTAI
 62
     8
420
  8421504
370
    25
100
AcDbLine
 10
308.0862549130533
 20
283.7756856741683
 30
0.0
 11
299.1709591330238
 21
266.9313581783698
 31
0.0
  0
LINE
  5
CF
330
70
100
AcDbEntity
  8
HONTAI
 62
     8
420
  8421504
370
    25
100
AcDbLine
 10
299.1709591330238
 20
266.9313581783698
 30
0.0
 11
302.8588670287776
 21
283.7756856741683
 31
0.0
  0
LINE
  5
D0
330
70
100
AcDbEntity
  8
HONTAI
 62
     8
420
  8421504
370
    25
100
AcDbLine
 10
302.8588670287776
 20
283.7756856741683
 30
0.0
 11
292.5201682597763
 21
266.9313581783698
 31
0.0
  0
LINE
  5
D1
330
70
100
AcDbEntity
  8
HONTAI
 62
     8
420
  8421504
370
    25
100
AcDbLine
 10
292.5201682597763
 20
266.9313581783698
 30
0.0
 11
298.0126787389393
 21
283.7756856741683
 31
0.0
  0
LINE
  5
D2
330
70
100
AcDbEntity
  8
HONTAI
 62
     8
420
  8421504
370
    25
100
AcDbLine
 10
298.0126787389393
 20
283.7756856741683
 30
0.0
 11
286.427474983334
 21
266.9313581783698
 31
0.0
  0
LINE
  5
D3
330
70
100
AcDbEntity
  8
HONTAI
 62
     8
420
  8421504
370
    25
100
AcDbLine
 10
286.427474983334
 20
266.9313581783698
 30
0.0
 11
293.6306096687758
 21
283.7756856741683
 31
0.0
  0
LINE
  5
D4
330
70
100
AcDbEntity
  8
HONTAI
 62
     8
420
  8421504
370
    25
100
AcDbLine
 10
293.6306096687758
 20
283.7756856741683
 30
0.0
 11
280.9971269748503
 21
266.9313581783698
 31
0.0
  0
LINE
  5
D5
330
70
100
AcDbEntity
  8
HONTAI
 62
     8
420
  8421504
370
    25
100
AcDbLine
 10
280.9971269748503
 20
266.9313581783698
 30
0.0
 11
289.787638235031
 21
283.7756856741683
 31
0.0
  0
LINE
  5
D6
330
70
100
AcDbEntity
  8
HONTAI
 62
     8
420
  8421504
370
    25
100
AcDbLine
 10
289.787638235031
 20
283.7756856741683
 30
0.0
 11
276.3220389943764
 21
266.9313581783698
 31
0.0
  0
LINE
  5
D7
330
70
100
AcDbEntity
  8
HONTAI
 62
     8
420
  8421504
370
    25
100
AcDbLine
 10
276.3220389943764
 20
266.9313581783698
 30
0.0
 11
286.5495187444362
 21
283.7756856741683
 31
0.0
  0
LINE
  5
D8
330
70
100
AcDbEntity
  8
HONTAI
 62
     8
420
  8421504
370
    25
100
AcDbLine
 10
286.5495187444362
 20
283.7756856741683
 30
0.0
 11
272.4822030933786
 21
266.9313581783698
 31
0.0
  0
LINE
  5
D9
330
70
100
AcDbEntity
  8
HONTAI
 62
     8
420
  8421504
370
    25
100
AcDbLine
 10
272.4822030933786
 20
266.9313581783698
 30
0.0
 11
283.9716563192181
 21
283.7756856741683
 31
0.0
  0
LINE
  5
DA
330
70
100
AcDbEntity
  8
HONTAI
 62
     8
420
  8421504
370
    25
100
AcDbLine
 10
283.9716563192181
 20
283.7756856741683
 30
0.0
 11
269.5433199287691
 21
266.9313581783698
 31
0.0
  0
LINE
  5
DB
330
70
100
AcDbEntity
  8
HONTAI
 62
     8
420
  8421504
370
    25
100
AcDbLine
 10
269.5433199287691
 20
266.9313581783698
 30
0.0
 11
282.0981589001961
 21
283.7756856741683
 31
0.0
  0
LINE
  5
DC
330
70
100
AcDbEntity
  8
HONTAI
 62
     8
420
  8421504
370
    25
100
AcDbLine
 10
282.0981589001961
 20
283.7756856741683
 30
0.0
 11
267.5556746062777
 21
266.9313581783698
 31
0.0
  0
LINE
  5
DD
330
70
100
AcDbEntity
  8
HONTAI
 62
     8
420
  8421504
370
    25
100
AcDbLine
 10
267.5556746062777
 20
266.9313581783698
 30
0.0
 11
280.9610825476577
 21
283.7756856741683
 31
0.0
  0
LINE
  5
DE
330
70
100
AcDbEntity
  8
HONTAI
 62
     8
420
  8421504
370
    25
100
AcDbLine
 10
280.9610825476577
 20
283.7756856741683
 30
0.0
 11
266.5532762884556
 21
266.9313581783698
 31
0.0
  0
LINE
  5
DF
330
70
100
AcDbEntity
  8
HONTAI
 62
     8
420
  8421504
370
    25
100
AcDbLine
 10
266.5532762884556
 20
266.9313581783698
 30
0.0
 11
280.5798829532105
 21
283.7756856741683
 31
0.0
  0
LINE
  5
E0
330
70
100
AcDbEntity
  8
HONTAI
 62
     8
420
  8421504
370
    25
100
AcDbLine
 10
319.3218691886506
 20
283.7756856746701
 30
0.0
 11
318.7025827214053
 21
293.1005037088202
 31
0.0
  0
LINE
  5
E1
330
70
100
AcDbEntity
  8
HONTAI
 62
     8
420
  8421504
370
    25
100
AcDbLine
 10
318.7025827214053
 20
293.1005037088202
 30
0.0
 11
313.5965523060442
 21
283.7756856741683
 31
0.0
  0
LINE
  5
E2
330
70
100
AcDbEntity
  8
HONTAI
 62
     8
420
  8421504
370
    25
100
AcDbLine
 10
313.5965523060442
 20
283.7756856741683
 30
0.0
 11
315.3062241437467
 21
293.2890599307425
 31
0.0
  0
LINE
  5
E3
330
70
100
AcDbEntity
  8
HONTAI
 62
     8
420
  8421504
370
    25
100
AcDbLine
 10
315.3062241437467
 20
293.2890599307425
 30
0.0
 11
308.0862549130533
 21
283.7756856741683
 31
0.0
  0
LINE
  5
E4
330
70
100
AcDbEntity
  8
HONTAI
 62
     8
420
  8421504
370
    25
100
AcDbLine
 10
308.0862549130533
 20
283.7756856741683
 30
0.0
 11
312.2211982176651
 21
293.5485965674025
 31
0.0
  0
LINE
  5
E5
330
70
100
AcDbEntity
  8
HONTAI
 62
     8
420
  8421504
370
    25
100
AcDbLine
 10
312.2211982176651
 20
293.5485965674025
 30
0.0
 11
302.8588670287776
 21
283.7756856741683
 31
0.0
  0
LINE
  5
E6
330
70
100
AcDbEntity
  8
HONTAI
 62
     8
420
  8421504
370
    25
100
AcDbLine
 10
302.8588670287776
 20
283.7756856741683
 30
0.0
 11
309.524089247084
 21
293.8676051792205
 31
0.0
  0
LINE
  5
E7
330
70
100
AcDbEntity
  8
HONTAI
 62
     8
420
  8421504
370
    25
100
AcDbLine
 10
309.524089247084
 20
293.8676051792205
 30
0.0
 11
298.0126787389393
 21
283.7756856741683
 31
0.0
  0
LINE
  5
E8
330
70
100
AcDbEntity
  8
HONTAI
 62
     8
420
  8421504
370
    25
100
AcDbLine
 10
298.0126787389393
 20
283.7756856741683
 30
0.0
 11
307.2656491267005
 21
294.2335483764537
 31
0.0
  0
LINE
  5
E9
330
70
100
AcDbEntity
  8
HONTAI
 62
     8
420
  8421504
370
    25
100
AcDbLine
 10
307.2656491267005
 20
294.2335483764537
 30
0.0
 11
293.6306096687758
 21
283.7756856741683
 31
0.0
  0
LINE
  5
EA
330
70
100
AcDbEntity
  8
HONTAI
 62
     8
420
  8421504
370
    25
100
AcDbLine
 10
293.6306096687758
 20
283.7756856741683
 30
0.0
 11
305.4739095243418
 21
294.6338650423129
 31
0.0
  0
LINE
  5
EB
330
70
100
AcDbEntity
  8
HONTAI
 62
     8
420
  8421504
370
    25
100
AcDbLine
 10
305.4739095243418
 20
294.6338650423129
 30
0.0
 11
289.787638235031
 21
283.7756856741683
 31
0.0
  0
LINE
  5
EC
330
70
100
AcDbEntity
  8
HONTAI
 62
     8
420
  8421504
370
    25
100
AcDbLine
 10
289.787638235031
 20
283.7756856741683
 30
0.0
 11
304.1571993878886
 21
295.0570586418135
 31
0.0
  0
LINE
  5
ED
330
70
100
AcDbEntity
  8
HONTAI
 62
     8
420
  8421504
370
    25
100
AcDbLine
 10
304.1571993878886
 20
295.0570586418135
 30
0.0
 11
286.5495187444362
 21
283.7756856741683
 31
0.0
  0
LINE
  5
EE
330
70
100
AcDbEntity
  8
HONTAI
 62
     8
420
  8421504
370
    25
100
AcDbLine
 10
286.5495187444362
 20
283.7756856741683
 30
0.0
 11
303.3092529105061
 21
295.494065283214
 31
0.0
  0
LINE
  5
EF
330
70
100
AcDbEntity
  8
HONTAI
 62
     8
420
  8421504
370
    25
100
AcDbLine
 10
303.3092529105061
 20
295.494065283214
 30
0.0
 11
283.9716563192181
 21
283.7756856741683
 31
0.0
  0
LINE
  5
F0
330
70
100
AcDbEntity
  8
HONTAI
 62
     8
420
  8421504
370
    25
100
AcDbLine
 10
283.9716563192181
 20
283.7756856741683
 30
0.0
 11
302.9380606259007
 21
295.8944072693388
 31
0.0
  0
LINE
  5
F1
330
70
100
AcDbEntity
  8
HONTAI
 62
     8
420
  8421504
370
    25
100
AcDbLine
 10
302.9380606259007
 20
295.8944072693388
 30
0.0
 11
282.0981589001961
 21
283.7756856741683
 31
0.0
  0
LINE
  5
F2
330
70
100
AcDbEntity
  8
HONTAI
 62
     8
420
  8421504
370
    25
100
AcDbLine
 10
282.0981589001961
 20
283.7756856741683
 30
0.0
 11
303.0109760936703
 21
296.4242004664968
 31
0.0
  0
LINE
  5
F3
330
70
100
AcDbEntity
  8
HONTAI
 62
     8
420
  8421504
370
    25
100
AcDbLine
 10
303.0109760936703
 20
296.4242004664968
 30
0.0
 11
280.9610825476577
 21
283.7756856741683
 31
0.0
  0
LINE
  5
F4
330
70
100
AcDbEntity
  8
HONTAI
 62
     8
420
  8421504
370
    25
100
AcDbLine
 10
280.9610825476577
 20
283.7756856741683
 30
0.0
 11
302.9264069768696
 21
296.579126858558
 31
0.0
  0
LINE
  5
F5
330
70
100
AcDbEntity
  8
HONTAI
 62
     8
420
  8421504
370
    25
100
AcDbLine
 10
302.5875984155179
 20
165.8270205958007
 30
0.0
 11
280.5798829532105
 21
180.1671807000578
 31
0.0
  0
LINE
  5
F6
330
70
100
AcDbEntity
  8
HONTAI
 62
     8
420
  8421504
370
    25
100
AcDbLine
 10
280.5798829532105
 20
180.1671807000578
 30
0.0
 11
266.4275730765139
 21
197.0115081958448
 31
0.0
  0
LINE
  5
F7
330
70
100
AcDbEntity
  8
HONTAI
 62
     8
420
  8421504
370
    25
100
AcDbLine
 10
266.4275730765139
 20
197.0115081958448
 30
0.0
 11
258.0000796169677
 21
219.2587331902811
 31
0.0
  0
LINE
  5
F8
330
70
100
AcDbEntity
  8
HONTAI
 62
     8
420
  8421504
370
    25
100
AcDbLine
 10
319.3218691884957
 20
180.1671807000578
 30
0.0
 11
321.2980152033233
 21
197.0115081958448
 31
0.0
  0
LINE
  5
F9
330
70
100
AcDbEntity
  8
HONTAI
 62
     8
420
  8421504
370
    25
100
AcDbLine
 10
325.135261661659
 20
180.1671807000578
 30
0.0
 11
323.4189627110926
 21
162.5676075677785
 31
0.0
  0
LINE
  5
FA
330
70
100
AcDbEntity
  8
HONTAI
 62
     8
420
  8421504
370
    25
100
AcDbLine
 10
323.4189627110926
 20
162.5676075677785
 30
0.0
 11
319.3218691884957
 21
180.1671807000578
 31
0.0
  0
LINE
  5
FB
330
70
100
AcDbEntity
  8
HONTAI
 62
     8
420
  8421504
370
    25
100
AcDbLine
 10
325.135261661659
 20
180.1671807000578
 30
0.0
 11
321.2980152033233
 21
197.0115081958448
 31
0.0
  0
LINE
  5
FC
330
70
100
AcDbEntity
  8
HONTAI
 62
     8
420
  8421504
370
    25
100
AcDbLine
 10
321.2980152033233
 20
197.0115081958448
 30
0.0
 11
325.135261661659
 21
219.2587331902811
 31
0.0
  0
LINE
  5
FD
330
70
100
AcDbEntity
  8
HONTAI
 62
     8
420
  8421504
370
    25
100
AcDbLine
 10
321.2980152033233
 20
197.0115081958448
 30
0.0
 11
316.3746134379404
 21
219.2587331902811
 31
0.0
  0
LINE
  5
FE
330
70
100
AcDbEntity
  8
HONTAI
 62
     8
420
  8421504
370
    25
100
AcDbLine
 10
316.3746134379404
 20
219.2587331902811
 30
0.0
 11
313.684044058211
 21
197.0115081958448
 31
0.0
  0
LINE
  5
FF
330
70
100
AcDbEntity
  8
HONTAI
 62
     8
420
  8421504
370
    25
100
AcDbLine
 10
313.684044058211
 20
197.0115081958448
 30
0.0
 11
307.7613171976617
 21
219.2587331902811
 31
0.0
  0
LINE
  5
100
330
70
100
AcDbEntity
  8
HONTAI
 62
     8
420
  8421504
370
    25
100
AcDbLine
 10
307.7613171976617
 20
219.2587331902811
 30
0.0
 11
306.2660507272657
 21
197.0115081958448
 31
0.0
  0
LINE
  5
101
330
70
100
AcDbEntity
  8
HONTAI
 62
     8
420
  8421504
370
    25
100
AcDbLine
 10
306.2660507272657
 20
197.0115081958448
 30
0.0
 11
299.445338270197
 21
219.2587331902811
 31
0.0
  0
LINE
  5
102
330
70
100
AcDbEntity
  8
HONTAI
 62
     8
420
  8421504
370
    25
100
AcDbLine
 10
299.445338270197
 20
219.2587331902811
 30
0.0
 11
299.1709591330238
 21
197.0115081958448
 31
0.0
  0
LINE
  5
103
330
70
100
AcDbEntity
  8
HONTAI
 62
     8
420
  8421504
370
    25
100
AcDbLine
 10
299.1709591330238
 20
197.0115081958448
 30
0.0
 11
291.5689653606429
 21
219.2587331902811
 31
0.0
  0
LINE
  5
104
330
70
100
AcDbEntity
  8
HONTAI
 62
     8
420
  8421504
370
    25
100
AcDbLine
 10
291.5689653606429
 20
219.2587331902811
 30
0.0
 11
292.5201682597763
 21
197.0115081958448
 31
0.0
  0
LINE
  5
105
330
70
100
AcDbEntity
  8
HONTAI
 62
     8
420
  8421504
370
    25
100
AcDbLine
 10
292.5201682597763
 20
197.0115081958448
 30
0.0
 11
284.2669653932107
 21
219.2587331902811
 31
0.0
  0
LINE
  5
106
330
70
100
AcDbEntity
  8
HONTAI
 62
     8
420
  8421504
370
    25
100
AcDbLine
 10
284.2669653932107
 20
219.2587331902811
 30
0.0
 11
286.427474983334
 21
197.0115081958448
 31
0.0
  0
LINE
  5
107
330
70
100
AcDbEntity
  8
HONTAI
 62
     8
420
  8421504
370
    25
100
AcDbLine
 10
286.427474983334
 20
197.0115081958448
 30
0.0
 11
277.6642776118698
 21
219.2587331902811
 31
0.0
  0
LINE
  5
108
330
70
100
AcDbEntity
  8
HONTAI
 62
     8
420
  8421504
370
    25
100
AcDbLine
 10
277.6642776118698
 20
219.2587331902811
 30
0.0
 11
280.9971269748503
 21
197.0115081958448
 31
0.0
  0
LINE
  5
109
330
70
100
AcDbEntity
  8
HONTAI
 62
     8
420
  8421504
370
    25
100
AcDbLine
 10
280.9971269748503
 20
197.0115081958448
 30
0.0
 11
271.8738758351254
 21
219.2587331902811
 31
0.0
  0
LINE
  5
10A
330
70
100
AcDbEntity
  8
HONTAI
 62
     8
420
  8421504
370
    25
100
AcDbLine
 10
271.8738758351254
 20
219.2587331902811
 30
0.0
 11
276.3220389943764
 21
197.0115081958448
 31
0.0
  0
LINE
  5
10B
330
70
100
AcDbEntity
  8
HONTAI
 62
     8
420
  8421504
370
    25
100
AcDbLine
 10
276.3220389943764
 20
197.0115081958448
 30
0.0
 11
266.9948354427995
 21
219.2587331902811
 31
0.0
  0
LINE
  5
10C
330
70
100
AcDbEntity
  8
HONTAI
 62
     8
420
  8421504
370
    25
100
AcDbLine
 10
266.9948354427995
 20
219.2587331902811
 30
0.0
 11
272.4822030933786
 21
197.0115081958448
 31
0.0
  0
LINE
  5
10D
330
70
100
AcDbEntity
  8
HONTAI
 62
     8
420
  8421504
370
    25
100
AcDbLine
 10
272.4822030933786
 20
197.0115081958448
 30
0.0
 11
263.1106381687344
 21
219.2587331902811
 31
0.0
  0
LINE
  5
10E
330
70
100
AcDbEntity
  8
HONTAI
 62
     8
420
  8421504
370
    25
100
AcDbLine
 10
263.1106381687344
 20
219.2587331902811
 30
0.0
 11
269.5433199287691
 21
197.0115081958448
 31
0.0
  0
LINE
  5
10F
330
70
100
AcDbEntity
  8
HONTAI
 62
     8
420
  8421504
370
    25
100
AcDbLine
 10
269.5433199287691
 20
197.0115081958448
 30
0.0
 11
260.2877437051938
 21
219.2587331902811
 31
0.0
  0
LINE
  5
110
330
70
100
AcDbEntity
  8
HONTAI
 62
     8
420
  8421504
370
    25
100
AcDbLine
 10
260.2877437051938
 20
219.2587331902811
 30
0.0
 11
267.5556746062777
 21
197.0115081958448
 31
0.0
  0
LINE
  5
111
330
70
100
AcDbEntity
  8
HONTAI
 62
     8
420
  8421504
370
    25
100
AcDbLine
 10
267.5556746062777
 20
197.0115081958448
 30
0.0
 11
258.5744525590888
 21
219.2587331902811
 31
0.0
  0
LINE
  5
112
330
70
100
AcDbEntity
  8
HONTAI
 62
     8
420
  8421504
370
    25
100
AcDbLine
 10
258.5744525590888
 20
219.2587331902811
 30
0.0
 11
266.5532762884556
 21
197.0115081958448
 31
0.0
  0
LINE
  5
113
330
70
100
AcDbEntity
  8
HONTAI
 62
     8
420
  8421504
370
    25
100
AcDbLine
 10
266.5532762884556
 20
197.0115081958448
 30
0.0
 11
258.0000796169677
 21
219.2587331902811
 31
0.0
  0
LINE
  5
114
330
70
100
AcDbEntity
  8
HONTAI
 62
     8
420
  8421504
370
    25
100
AcDbLine
 10
319.3218691884957
 20
180.1671807000578
 30
0.0
 11
313.684044058211
 21
197.0115081958448
 31
0.0
  0
LINE
  5
115
330
70
100
AcDbEntity
  8
HONTAI
 62
     8
420
  8421504
370
    25
100
AcDbLine
 10
313.684044058211
 20
197.0115081958448
 30
0.0
 11
313.5965523060442
 21
180.1671807000578
 31
0.0
  0
LINE
  5
116
330
70
100
AcDbEntity
  8
HONTAI
 62
     8
420
  8421504
370
    25
100
AcDbLine
 10
313.5965523060442
 20
180.1671807000578
 30
0.0
 11
306.2660507272657
 21
197.0115081958448
 31
0.0
  0
LINE
  5
117
330
70
100
AcDbEntity
  8
HONTAI
 62
     8
420
  8421504
370
    25
100
AcDbLine
 10
306.2660507272657
 20
197.0115081958448
 30
0.0
 11
308.0862549130533
 21
180.1671807000578
 31
0.0
  0
LINE
  5
118
330
70
100
AcDbEntity
  8
HONTAI
 62
     8
420
  8421504
370
    25
100
AcDbLine
 10
308.0862549130533
 20
180.1671807000578
 30
0.0
 11
299.1709591330238
 21
197.0115081958448
 31
0.0
  0
LINE
  5
119
330
70
100
AcDbEntity
  8
HONTAI
 62
     8
420
  8421504
370
    25
100
AcDbLine
 10
299.1709591330238
 20
197.0115081958448
 30
0.0
 11
302.8588670287776
 21
180.1671807000578
 31
0.0
  0
LINE
  5
11A
330
70
100
AcDbEntity
  8
HONTAI
 62
     8
420
  8421504
370
    25
100
AcDbLine
 10
302.8588670287776
 20
180.1671807000578
 30
0.0
 11
292.5201682597763
 21
197.0115081958448
 31
0.0
  0
LINE
  5
11B
330
70
100
AcDbEntity
  8
HONTAI
 62
     8
420
  8421504
370
    25
100
AcDbLine
 10
292.5201682597763
 20
197.0115081958448
 30
0.0
 11
298.0126787389393
 21
180.1671807000578
 31
0.0
  0
LINE
  5
11C
330
70
100
AcDbEntity
  8
HONTAI
 62
     8
420
  8421504
370
    25
100
AcDbLine
 10
298.0126787389393
 20
180.1671807000578
 30
0.0
 11
286.427474983334
 21
197.0115081958448
 31
0.0
  0
LINE
  5
11D
330
70
100
AcDbEntity
  8
HONTAI
 62
     8
420
  8421504
370
    25
100
AcDbLine
 10
286.427474983334
 20
197.0115081958448
 30
0.0
 11
293.6306096687758
 21
180.1671807000578
 31
0.0
  0
LINE
  5
11E
330
70
100
AcDbEntity
  8
HONTAI
 62
     8
420
  8421504
370
    25
100
AcDbLine
 10
293.6306096687758
 20
180.1671807000578
 30
0.0
 11
280.9971269748503
 21
197.0115081958448
 31
0.0
  0
LINE
  5
11F
330
70
100
AcDbEntity
  8
HONTAI
 62
     8
420
  8421504
370
    25
100
AcDbLine
 10
280.9971269748503
 20
197.0115081958448
 30
0.0
 11
289.787638235031
 21
180.1671807000578
 31
0.0
  0
LINE
  5
120
330
70
100
AcDbEntity
  8
HONTAI
 62
     8
420
  8421504
370
    25
100
AcDbLine
 10
289.787638235031
 20
180.1671807000578
 30
0.0
 11
276.3220389943764
 21
197.0115081958448
 31
0.0
  0
LINE
  5
121
330
70
100
AcDbEntity
  8
HONTAI
 62
     8
420
  8421504
370
    25
100
AcDbLine
 10
276.3220389943764
 20
197.0115081958448
 30
0.0
 11
286.5495187444362
 21
180.1671807000578
 31
0.0
  0
LINE
  5
122
330
70
100
AcDbEntity
  8
HONTAI
 62
     8
420
  8421504
370
    25
100
AcDbLine
 10
286.5495187444362
 20
180.1671807000578
 30
0.0
 11
272.4822030933786
 21
197.0115081958448
 31
0.0
  0
LINE
  5
123
330
70
100
AcDbEntity
  8
HONTAI
 62
     8
420
  8421504
370
    25
100
AcDbLine
 10
272.4822030933786
 20
197.0115081958448
 30
0.0
 11
283.9716563192181
 21
180.1671807000578
 31
0.0
  0
LINE
  5
124
330
70
100
AcDbEntity
  8
HONTAI
 62
     8
420
  8421504
370
    25
100
AcDbLine
 10
283.9716563192181
 20
180.1671807000578
 30
0.0
 11
269.5433199287691
 21
197.0115081958448
 31
0.0
  0
LINE
  5
125
330
70
100
AcDbEntity
  8
HONTAI
 62
     8
420
  8421504
370
    25
100
AcDbLine
 10
269.5433199287691
 20
197.0115081958448
 30
0.0
 11
282.0981589001961
 21
180.1671807000578
 31
0.0
  0
LINE
  5
126
330
70
100
AcDbEntity
  8
HONTAI
 62
     8
420
  8421504
370
    25
100
AcDbLine
 10
282.0981589001961
 20
180.1671807000578
 30
0.0
 11
267.5556746062777
 21
197.0115081958448
 31
0.0
  0
LINE
  5
127
330
70
100
AcDbEntity
  8
HONTAI
 62
     8
420
  8421504
370
    25
100
AcDbLine
 10
267.5556746062777
 20
197.0115081958448
 30
0.0
 11
280.9610825476577
 21
180.1671807000578
 31
0.0
  0
LINE
  5
128
330
70
100
AcDbEntity
  8
HONTAI
 62
     8
420
  8421504
370
    25
100
AcDbLine
 10
280.9610825476577
 20
180.1671807000578
 30
0.0
 11
266.5532762884556
 21
197.0115081958448
 31
0.0
  0
LINE
  5
129
330
70
100
AcDbEntity
  8
HONTAI
 62
     8
420
  8421504
370
    25
100
AcDbLine
 10
266.5532762884556
 20
197.0115081958448
 30
0.0
 11
280.5798829532105
 21
180.1671807000578
 31
0.0
  0
LINE
  5
12A
330
70
100
AcDbEntity
  8
HONTAI
 62
     8
420
  8421504
370
    25
100
AcDbLine
 10
319.3218691886506
 20
180.1671806995586
 30
0.0
 11
320.4145401653523
 21
162.6507111103977
 31
0.0
  0
LINE
  5
12B
330
70
100
AcDbEntity
  8
HONTAI
 62
     8
420
  8421504
370
    25
100
AcDbLine
 10
320.4145401653523
 20
162.6507111103977
 30
0.0
 11
313.5965523060442
 21
180.1671807000578
 31
0.0
  0
LINE
  5
12C
330
70
100
AcDbEntity
  8
HONTAI
 62
     8
420
  8421504
370
    25
100
AcDbLine
 10
313.5965523060442
 20
180.1671807000578
 30
0.0
 11
317.5249273655513
 21
162.8077308282652
 31
0.0
  0
LINE
  5
12D
330
70
100
AcDbEntity
  8
HONTAI
 62
     8
420
  8421504
370
    25
100
AcDbLine
 10
317.5249273655513
 20
162.8077308282652
 30
0.0
 11
308.0862549130533
 21
180.1671807000578
 31
0.0
  0
LINE
  5
12E
330
70
100
AcDbEntity
  8
HONTAI
 62
     8
420
  8421504
370
    25
100
AcDbLine
 10
308.0862549130533
 20
180.1671807000578
 30
0.0
 11
314.7816848062956
 21
163.034233988934
 31
0.0
  0
LINE
  5
12F
330
70
100
AcDbEntity
  8
HONTAI
 62
     8
420
  8421504
370
    25
100
AcDbLine
 10
314.7816848062956
 20
163.034233988934
 30
0.0
 11
302.8588670287776
 21
180.1671807000578
 31
0.0
  0
LINE
  5
130
330
70
100
AcDbEntity
  8
HONTAI
 62
     8
420
  8421504
370
    25
100
AcDbLine
 10
302.8588670287776
 20
180.1671807000578
 30
0.0
 11
312.4077536069129
 21
163.3484513480907
 31
0.0
  0
LINE
  5
131
330
70
100
AcDbEntity
  8
HONTAI
 62
     8
420
  8421504
370
    25
100
AcDbLine
 10
312.4077536069129
 20
163.3484513480907
 30
0.0
 11
298.0126787389393
 21
180.1671807000578
 31
0.0
  0
LINE
  5
132
330
70
100
AcDbEntity
  8
HONTAI
 62
     8
420
  8421504
370
    25
100
AcDbLine
 10
298.0126787389393
 20
180.1671807000578
 30
0.0
 11
310.2852520577906
 21
163.6065205795974
 31
0.0
  0
LINE
  5
133
330
70
100
AcDbEntity
  8
HONTAI
 62
     8
420
  8421504
370
    25
100
AcDbLine
 10
310.2852520577906
 20
163.6065205795974
 30
0.0
 11
293.6306096687758
 21
180.1671807000578
 31
0.0
  0
LINE
  5
134
330
70
100
AcDbEntity
  8
HONTAI
 62
     8
420
  8421504
370
    25
100
AcDbLine
 10
293.6306096687758
 20
180.1671807000578
 30
0.0
 11
308.3534225922477
 21
163.9547298579553
 31
0.0
  0
LINE
  5
135
330
70
100
AcDbEntity
  8
HONTAI
 62
     8
420
  8421504
370
    25
100
AcDbLine
 10
308.3534225922477
 20
163.9547298579553
 30
0.0
 11
289.787638235031
 21
180.1671807000578
 31
0.0
  0
LINE
  5
136
330
70
100
AcDbEntity
  8
HONTAI
 62
     8
420
  8421504
370
    25
100
AcDbLine
 10
289.787638235031
 20
180.1671807000578
 30
0.0
 11
306.7484737403577
 21
164.3114496644667
 31
0.0
  0
LINE
  5
137
330
70
100
AcDbEntity
  8
HONTAI
 62
     8
420
  8421504
370
    25
100
AcDbLine
 10
306.7484737403577
 20
164.3114496644667
 30
0.0
 11
286.5495187444362
 21
180.1671807000578
 31
0.0
  0
LINE
  5
138
330
70
100
AcDbEntity
  8
HONTAI
 62
     8
420
  8421504
370
    25
100
AcDbLine
 10
286.5495187444362
 20
180.1671807000578
 30
0.0
 11
305.496931483033
 21
164.6483823134065
 31
0.0
  0
LINE
  5
139
330
70
100
AcDbEntity
  8
HONTAI
 62
     8
420
  8421504
370
    25
100
AcDbLine
 10
305.496931483033
 20
164.6483823134065
 30
0.0
 11
283.9716563192181
 21
180.1671807000578
 31
0.0
  0
LINE
  5
13A
330
70
100
AcDbEntity
  8
HONTAI
 62
     8
420
  8421504
370
    25
100
AcDbLine
 10
283.9716563192181
 20
180.1671807000578
 30
0.0
 11
304.6040032883153
 21
164.9329976531041
 31
0.0
  0
LINE
  5
13B
330
70
100
AcDbEntity
  8
HONTAI
 62
     8
420
  8421504
370
    25
100
AcDbLine
 10
304.6040032883153
 20
164.9329976531041
 30
0.0
 11
282.0981589001961
 21
180.1671807000578
 31
0.0
  0
LINE
  5
13C
330
70
100
AcDbEntity
  8
HONTAI
 62
     8
420
  8421504
370
    25
100
AcDbLine
 10
282.0981589001961
 20
180.1671807000578
 30
0.0
 11
304.0485044660274
 21
165.1356287598487
 31
0.0
  0
LINE
  5
13D
330
70
100
AcDbEntity
  8
HONTAI
 62
     8
420
  8421504
370
    25
100
AcDbLine
 10
304.0485044660274
 20
165.1356287598487
 30
0.0
 11
280.9610825476577
 21
180.1671807000578
 31
0.0
  0
LINE
  5
13E
330
70
100
AcDbEntity
  8
HONTAI
 62
     8
420
  8421504
370
    25
100
AcDbLine
 10
280.9610825476577
 20
180.1671807000578
 30
0.0
 11
302.5875984155179
 21
165.8270205958007
 31
0.0
  0
LINE
  5
13F
330
70
100
AcDbEntity
  8
HONTAI
 62
     8
420
  8421504
370
    25
100
AcDbLine
 10
347.3850760987561
 20
296.579126858558
 30
0.0
 11
369.695819255413
 21
283.7756856741683
 31
0.0
  0
LINE
  5
140
330
70
100
AcDbEntity
  8
HONTAI
 62
     8
420
  8421504
370
    25
100
AcDbLine
 10
369.695819255413
 20
283.7756856741683
 30
0.0
 11
383.8481291321228
 21
266.9313581783698
 31
0.0
  0
LINE
  5
141
330
70
100
AcDbEntity
  8
HONTAI
 62
     8
420
  8421504
370
    25
100
AcDbLine
 10
383.8481291321228
 20
266.9313581783698
 30
0.0
 11
392.2756225916696
 21
244.6841331839299
 31
0.0
  0
LINE
  5
142
330
70
100
AcDbEntity
  8
HONTAI
 62
     8
420
  8421504
370
    25
100
AcDbLine
 10
392.2756225916696
 20
244.6841331839299
 30
0.0
 11
392.2756225916696
 21
219.2587331902811
 31
0.0
  0
LINE
  5
143
330
70
100
AcDbEntity
  8
HONTAI
 62
     8
420
  8421504
370
    25
100
AcDbLine
 10
330.9538330201316
 20
283.7756856741683
 30
0.0
 11
328.9776870053038
 21
266.9313581783698
 31
0.0
  0
LINE
  5
144
330
70
100
AcDbEntity
  8
HONTAI
 62
     8
420
  8421504
370
    25
100
AcDbLine
 10
325.1404405469779
 20
283.7756856741683
 30
0.0
 11
327.954165224493
 21
292.9917999310018
 31
0.0
  0
LINE
  5
145
330
70
100
AcDbEntity
  8
HONTAI
 62
     8
420
  8421504
370
    25
100
AcDbLine
 10
327.954165224493
 20
292.9917999310018
 30
0.0
 11
330.9538330201316
 21
283.7756856741683
 31
0.0
  0
LINE
  5
146
330
70
100
AcDbEntity
  8
HONTAI
 62
     8
420
  8421504
370
    25
100
AcDbLine
 10
325.1404405469779
 20
283.7756856741683
 30
0.0
 11
328.9776870053038
 21
266.9313581783698
 31
0.0
  0
LINE
  5
147
330
70
100
AcDbEntity
  8
HONTAI
 62
     8
420
  8421504
370
    25
100
AcDbLine
 10
328.9776870053038
 20
266.9313581783698
 30
0.0
 11
325.1404405469779
 21
244.6841331839299
 31
0.0
  0
LINE
  5
148
330
70
100
AcDbEntity
  8
HONTAI
 62
     8
420
  8421504
370
    25
100
AcDbLine
 10
328.9776870053038
 20
266.9313581783698
 30
0.0
 11
333.9010887706963
 21
244.6841331839299
 31
0.0
  0
LINE
  5
149
330
70
100
AcDbEntity
  8
HONTAI
 62
     8
420
  8421504
370
    25
100
AcDbLine
 10
333.9010887706963
 20
244.6841331839299
 30
0.0
 11
333.9010887706963
 21
219.2587331902811
 31
0.0
  0
LINE
  5
14A
330
70
100
AcDbEntity
  8
HONTAI
 62
     8
420
  8421504
370
    25
100
AcDbLine
 10
342.5143850109813
 20
244.6841331839299
 30
0.0
 11
342.5143850109813
 21
219.2587331902811
 31
0.0
  0
LINE
  5
14B
330
70
100
AcDbEntity
  8
HONTAI
 62
     8
420
  8421504
370
    25
100
AcDbLine
 10
350.8303639384394
 20
244.6841331839299
 30
0.0
 11
350.8303639384394
 21
219.2587331902811
 31
0.0
  0
LINE
  5
14C
330
70
100
AcDbEntity
  8
HONTAI
 62
     8
420
  8421504
370
    25
100
AcDbLine
 10
358.7067368479931
 20
244.6841331839299
 30
0.0
 11
358.7067368479931
 21
219.2587331902811
 31
0.0
  0
LINE
  5
14D
330
70
100
AcDbEntity
  8
HONTAI
 62
     8
420
  8421504
370
    25
100
AcDbLine
 10
366.0087368154
 20
244.6841331839299
 30
0.0
 11
366.0087368154
 21
219.2587331902811
 31
0.0
  0
LINE
  5
14E
330
70
100
AcDbEntity
  8
HONTAI
 62
     8
420
  8421504
370
    25
100
AcDbLine
 10
372.6114245967729
 20
244.6841331839299
 30
0.0
 11
372.6114245967729
 21
219.2587331902811
 31
0.0
  0
LINE
  5
14F
330
70
100
AcDbEntity
  8
HONTAI
 62
     8
420
  8421504
370
    25
100
AcDbLine
 10
378.4018263735106
 20
244.6841331839299
 30
0.0
 11
378.4018263735106
 21
219.2587331902811
 31
0.0
  0
LINE
  5
150
330
70
100
AcDbEntity
  8
HONTAI
 62
     8
420
  8421504
370
    25
100
AcDbLine
 10
383.2808667658369
 20
244.6841331839299
 30
0.0
 11
383.2808667658369
 21
219.2587331902811
 31
0.0
  0
LINE
  5
151
330
70
100
AcDbEntity
  8
HONTAI
 62
     8
420
  8421504
370
    25
100
AcDbLine
 10
387.1650640399023
 20
244.6841331839299
 30
0.0
 11
387.1650640399023
 21
219.2587331902811
 31
0.0
  0
LINE
  5
152
330
70
100
AcDbEntity
  8
HONTAI
 62
     8
420
  8421504
370
    25
100
AcDbLine
 10
389.9879585034332
 20
244.6841331839299
 30
0.0
 11
389.9879585034332
 21
219.2587331902811
 31
0.0
  0
LINE
  5
153
330
70
100
AcDbEntity
  8
HONTAI
 62
     8
420
  8421504
370
    25
100
AcDbLine
 10
391.7012496495478
 20
244.6841331839299
 30
0.0
 11
391.7012496495478
 21
219.2587331902811
 31
0.0
  0
LINE
  5
154
330
70
100
AcDbEntity
  8
HONTAI
 62
     8
420
  8421504
370
    25
100
AcDbLine
 10
333.9010887706963
 20
244.6841331839299
 30
0.0
 11
336.5916581504128
 21
266.9313581783698
 31
0.0
  0
LINE
  5
155
330
70
100
AcDbEntity
  8
HONTAI
 62
     8
420
  8421504
370
    25
100
AcDbLine
 10
336.5916581504128
 20
266.9313581783698
 30
0.0
 11
342.5143850109813
 21
244.6841331839299
 31
0.0
  0
LINE
  5
156
330
70
100
AcDbEntity
  8
HONTAI
 62
     8
420
  8421504
370
    25
100
AcDbLine
 10
342.5143850109813
 20
244.6841331839299
 30
0.0
 11
344.0096514813616
 21
266.9313581783698
 31
0.0
  0
LINE
  5
157
330
70
100
AcDbEntity
  8
HONTAI
 62
     8
420
  8421504
370
    25
100
AcDbLine
 10
344.0096514813616
 20
266.9313581783698
 30
0.0
 11
350.8303639384394
 21
244.6841331839299
 31
0.0
  0
LINE
  5
158
330
70
100
AcDbEntity
  8
HONTAI
 62
     8
420
  8421504
370
    25
100
AcDbLine
 10
350.8303639384394
 20
244.6841331839299
 30
0.0
 11
351.1047430756125
 21
266.9313581783698
 31
0.0
  0
LINE
  5
159
330
70
100
AcDbEntity
  8
HONTAI
 62
     8
420
  8421504
370
    25
100
AcDbLine
 10
351.1047430756125
 20
266.9313581783698
 30
0.0
 11
358.7067368479931
 21
244.6841331839299
 31
0.0
  0
LINE
  5
15A
330
70
100
AcDbEntity
  8
HONTAI
 62
     8
420
  8421504
370
    25
100
AcDbLine
 10
358.7067368479931
 20
244.6841331839299
 30
0.0
 11
357.755533948861
 21
266.9313581783698
 31
0.0
  0
LINE
  5
15B
330
70
100
AcDbEntity
  8
HONTAI
 62
     8
420
  8421504
370
    25
100
AcDbLine
 10
357.755533948861
 20
266.9313581783698
 30
0.0
 11
366.0087368154
 21
244.6841331839299
 31
0.0
  0
LINE
  5
15C
330
70
100
AcDbEntity
  8
HONTAI
 62
     8
420
  8421504
370
    25
100
AcDbLine
 10
366.0087368154
 20
244.6841331839299
 30
0.0
 11
363.848227225293
 21
266.9313581783698
 31
0.0
  0
LINE
  5
15D
330
70
100
AcDbEntity
  8
HONTAI
 62
     8
420
  8421504
370
    25
100
AcDbLine
 10
363.848227225293
 20
266.9313581783698
 30
0.0
 11
372.6114245967729
 21
244.6841331839299
 31
0.0
  0
LINE
  5
15E
330
70
100
AcDbEntity
  8
HONTAI
 62
     8
420
  8421504
370
    25
100
AcDbLine
 10
372.6114245967729
 20
244.6841331839299
 30
0.0
 11
369.2785752337738
 21
266.9313581783698
 31
0.0
  0
LINE
  5
15F
330
70
100
AcDbEntity
  8
HONTAI
 62
     8
420
  8421504
370
    25
100
AcDbLine
 10
369.2785752337738
 20
266.9313581783698
 30
0.0
 11
378.4018263735106
 21
244.6841331839299
 31
0.0
  0
LINE
  5
160
330
70
100
AcDbEntity
  8
HONTAI
 62
     8
420
  8421504
370
    25
100
AcDbLine
 10
378.4018263735106
 20
244.6841331839299
 30
0.0
 11
373.9536632142606
 21
266.9313581783698
 31
0.0
  0
LINE
  5
161
330
70
100
AcDbEntity
  8
HONTAI
 62
     8
420
  8421504
370
    25
100
AcDbLine
 10
373.9536632142606
 20
266.9313581783698
 30
0.0
 11
383.2808667658369
 21
244.6841331839299
 31
0.0
  0
LINE
  5
162
330
70
100
AcDbEntity
  8
HONTAI
 62
     8
420
  8421504
370
    25
100
AcDbLine
 10
383.2808667658369
 20
244.6841331839299
 30
0.0
 11
377.7934991152593
 21
266.9313581783698
 31
0.0
  0
LINE
  5
163
330
70
100
AcDbEntity
  8
HONTAI
 62
     8
420
  8421504
370
    25
100
AcDbLine
 10
377.7934991152593
 20
266.9313581783698
 30
0.0
 11
387.1650640399023
 21
244.6841331839299
 31
0.0
  0
LINE
  5
164
330
70
100
AcDbEntity
  8
HONTAI
 62
     8
420
  8421504
370
    25
100
AcDbLine
 10
387.1650640399023
 20
244.6841331839299
 30
0.0
 11
380.7323822798679
 21
266.9313581783698
 31
0.0
  0
LINE
  5
165
330
70
100
AcDbEntity
  8
HONTAI
 62
     8
420
  8421504
370
    25
100
AcDbLine
 10
380.7323822798679
 20
266.9313581783698
 30
0.0
 11
389.9879585034332
 21
244.6841331839299
 31
0.0
  0
LINE
  5
166
330
70
100
AcDbEntity
  8
HONTAI
 62
     8
420
  8421504
370
    25
100
AcDbLine
 10
389.9879585034332
 20
244.6841331839299
 30
0.0
 11
382.7200276023663
 21
266.9313581783698
 31
0.0
  0
LINE
  5
167
330
70
100
AcDbEntity
  8
HONTAI
 62
     8
420
  8421504
370
    25
100
AcDbLine
 10
382.7200276023663
 20
266.9313581783698
 30
0.0
 11
391.7012496495478
 21
244.6841331839299
 31
0.0
  0
LINE
  5
168
330
70
100
AcDbEntity
  8
HONTAI
 62
     8
420
  8421504
370
    25
100
AcDbLine
 10
391.7012496495478
 20
244.6841331839299
 30
0.0
 11
383.7224259201679
 21
266.9313581783698
 31
0.0
  0
LINE
  5
169
330
70
100
AcDbEntity
  8
HONTAI
 62
     8
420
  8421504
370
    25
100
AcDbLine
 10
383.7224259201679
 20
266.9313581783698
 30
0.0
 11
392.2756225916696
 21
244.6841331839299
 31
0.0
  0
LINE
  5
16A
330
70
100
AcDbEntity
  8
HONTAI
 62
     8
420
  8421504
370
    25
100
AcDbLine
 10
330.9538330201316
 20
283.7756856741683
 30
0.0
 11
336.5916581504128
 21
266.9313581783698
 31
0.0
  0
LINE
  5
16B
330
70
100
AcDbEntity
  8
HONTAI
 62
     8
420
  8421504
370
    25
100
AcDbLine
 10
336.5916581504128
 20
266.9313581783698
 30
0.0
 11
336.6791499025925
 21
283.7756856741683
 31
0.0
  0
LINE
  5
16C
330
70
100
AcDbEntity
  8
HONTAI
 62
     8
420
  8421504
370
    25
100
AcDbLine
 10
336.6791499025925
 20
283.7756856741683
 30
0.0
 11
344.0096514813616
 21
266.9313581783698
 31
0.0
  0
LINE
  5
16D
330
70
100
AcDbEntity
  8
HONTAI
 62
     8
420
  8421504
370
    25
100
AcDbLine
 10
344.0096514813616
 20
266.9313581783698
 30
0.0
 11
342.1894472955898
 21
283.7756856741683
 31
0.0
  0
LINE
  5
16E
330
70
100
AcDbEntity
  8
HONTAI
 62
     8
420
  8421504
370
    25
100
AcDbLine
 10
342.1894472955898
 20
283.7756856741683
 30
0.0
 11
351.1047430756125
 21
266.9313581783698
 31
0.0
  0
LINE
  5
16F
330
70
100
AcDbEntity
  8
HONTAI
 62
     8
420
  8421504
370
    25
100
AcDbLine
 10
351.1047430756125
 20
266.9313581783698
 30
0.0
 11
347.4168351798593
 21
283.7756856741683
 31
0.0
  0
LINE
  5
170
330
70
100
AcDbEntity
  8
HONTAI
 62
     8
420
  8421504
370
    25
100
AcDbLine
 10
347.4168351798593
 20
283.7756856741683
 30
0.0
 11
357.755533948861
 21
266.9313581783698
 31
0.0
  0
LINE
  5
171
330
70
100
AcDbEntity
  8
HONTAI
 62
     8
420
  8421504
370
    25
100
AcDbLine
 10
357.755533948861
 20
266.9313581783698
 30
0.0
 11
352.2630234696973
 21
283.7756856741683
 31
0.0
  0
LINE
  5
172
330
70
100
AcDbEntity
  8
HONTAI
 62
     8
420
  8421504
370
    25
100
AcDbLine
 10
352.2630234696973
 20
283.7756856741683
 30
0.0
 11
363.848227225293
 21
266.9313581783698
 31
0.0
  0
LINE
  5
173
330
70
100
AcDbEntity
  8
HONTAI
 62
     8
420
  8421504
370
    25
100
AcDbLine
 10
363.848227225293
 20
266.9313581783698
 30
0.0
 11
356.6450925398612
 21
283.7756856741683
 31
0.0
  0
LINE
  5
174
330
70
100
AcDbEntity
  8
HONTAI
 62
     8
420
  8421504
370
    25
100
AcDbLine
 10
356.6450925398612
 20
283.7756856741683
 30
0.0
 11
369.2785752337738
 21
266.9313581783698
 31
0.0
  0
LINE
  5
175
330
70
100
AcDbEntity
  8
HONTAI
 62
     8
420
  8421504
370
    25
100
AcDbLine
 10
369.2785752337738
 20
266.9313581783698
 30
0.0
 11
360.4880639735922
 21
283.7756856741683
 31
0.0
  0
LINE
  5
176
330
70
100
AcDbEntity
  8
HONTAI
 62
     8
420
  8421504
370
    25
100
AcDbLine
 10
360.4880639735922
 20
283.7756856741683
 30
0.0
 11
373.9536632142606
 21
266.9313581783698
 31
0.0
  0
LINE
  5
177
330
70
100
AcDbEntity
  8
HONTAI
 62
     8
420
  8421504
370
    25
100
AcDbLine
 10
373.9536632142606
 20
266.9313581783698
 30
0.0
 11
363.7261834641901
 21
283.7756856741683
 31
0.0
  0
LINE
  5
178
330
70
100
AcDbEntity
  8
HONTAI
 62
     8
420
  8421504
370
    25
100
AcDbLine
 10
363.7261834641901
 20
283.7756856741683
 30
0.0
 11
377.7934991152593
 21
266.9313581783698
 31
0.0
  0
LINE
  5
179
330
70
100
AcDbEntity
  8
HONTAI
 62
     8
420
  8421504
370
    25
100
AcDbLine
 10
377.7934991152593
 20
266.9313581783698
 30
0.0
 11
366.3040458894185
 21
283.7756856741683
 31
0.0
  0
LINE
  5
17A
330
70
100
AcDbEntity
  8
HONTAI
 62
     8
420
  8421504
370
    25
100
AcDbLine
 10
366.3040458894185
 20
283.7756856741683
 30
0.0
 11
380.7323822798679
 21
266.9313581783698
 31
0.0
  0
LINE
  5
17B
330
70
100
AcDbEntity
  8
HONTAI
 62
     8
420
  8421504
370
    25
100
AcDbLine
 10
380.7323822798679
 20
266.9313581783698
 30
0.0
 11
368.1775433084264
 21
283.7756856741683
 31
0.0
  0
LINE
  5
17C
330
70
100
AcDbEntity
  8
HONTAI
 62
     8
420
  8421504
370
    25
100
AcDbLine
 10
368.1775433084264
 20
283.7756856741683
 30
0.0
 11
382.7200276023663
 21
266.9313581783698
 31
0.0
  0
LINE
  5
17D
330
70
100
AcDbEntity
  8
HONTAI
 62
     8
420
  8421504
370
    25
100
AcDbLine
 10
382.7200276023663
 20
266.9313581783698
 30
0.0
 11
369.3146196609783
 21
283.7756856741683
 31
0.0
  0
LINE
  5
17E
330
70
100
AcDbEntity
  8
HONTAI
 62
     8
420
  8421504
370
    25
100
AcDbLine
 10
369.3146196609783
 20
283.7756856741683
 30
0.0
 11
383.7224259201679
 21
266.9313581783698
 31
0.0
  0
LINE
  5
17F
330
70
100
AcDbEntity
  8
HONTAI
 62
     8
420
  8421504
370
    25
100
AcDbLine
 10
383.7224259201679
 20
266.9313581783698
 30
0.0
 11
369.695819255413
 21
283.7756856741683
 31
0.0
  0
LINE
  5
180
330
70
100
AcDbEntity
  8
HONTAI
 62
     8
420
  8421504
370
    25
100
AcDbLine
 10
330.953833019986
 20
283.7756856746701
 30
0.0
 11
331.5731194872183
 21
293.1005037088202
 31
0.0
  0
LINE
  5
181
330
70
100
AcDbEntity
  8
HONTAI
 62
     8
420
  8421504
370
    25
100
AcDbLine
 10
331.5731194872183
 20
293.1005037088202
 30
0.0
 11
336.6791499025925
 21
283.7756856741683
 31
0.0
  0
LINE
  5
182
330
70
100
AcDbEntity
  8
HONTAI
 62
     8
420
  8421504
370
    25
100
AcDbLine
 10
336.6791499025925
 20
283.7756856741683
 30
0.0
 11
334.9694780648903
 21
293.2890599307425
 31
0.0
  0
LINE
  5
183
330
70
100
AcDbEntity
  8
HONTAI
 62
     8
420
  8421504
370
    25
100
AcDbLine
 10
334.9694780648903
 20
293.2890599307425
 30
0.0
 11
342.1894472955898
 21
283.7756856741683
 31
0.0
  0
LINE
  5
184
330
70
100
AcDbEntity
  8
HONTAI
 62
     8
420
  8421504
370
    25
100
AcDbLine
 10
342.1894472955898
 20
283.7756856741683
 30
0.0
 11
338.0545039909715
 21
293.5485965674025
 31
0.0
  0
LINE
  5
185
330
70
100
AcDbEntity
  8
HONTAI
 62
     8
420
  8421504
370
    25
100
AcDbLine
 10
338.0545039909715
 20
293.5485965674025
 30
0.0
 11
347.4168351798593
 21
283.7756856741683
 31
0.0
  0
LINE
  5
186
330
70
100
AcDbEntity
  8
HONTAI
 62
     8
420
  8421504
370
    25
100
AcDbLine
 10
347.4168351798593
 20
283.7756856741683
 30
0.0
 11
340.7516129615529
 21
293.8676051792205
 31
0.0
  0
LINE
  5
187
330
70
100
AcDbEntity
  8
HONTAI
 62
     8
420
  8421504
370
    25
100
AcDbLine
 10
340.7516129615529
 20
293.8676051792205
 30
0.0
 11
352.2630234696973
 21
283.7756856741683
 31
0.0
  0
LINE
  5
188
330
70
100
AcDbEntity
  8
HONTAI
 62
     8
420
  8421504
370
    25
100
AcDbLine
 10
352.2630234696973
 20
283.7756856741683
 30
0.0
 11
343.0100530819361
 21
294.2335483764537
 31
0.0
  0
LINE
  5
189
330
70
100
AcDbEntity
  8
HONTAI
 62
     8
420
  8421504
370
    25
100
AcDbLine
 10
343.0100530819361
 20
294.2335483764537
 30
0.0
 11
356.6450925398612
 21
283.7756856741683
 31
0.0
  0
LINE
  5
18A
330
70
100
AcDbEntity
  8
HONTAI
 62
     8
420
  8421504
370
    25
100
AcDbLine
 10
356.6450925398612
 20
283.7756856741683
 30
0.0
 11
344.8017926842849
 21
294.6338650423129
 31
0.0
  0
LINE
  5
18B
330
70
100
AcDbEntity
  8
HONTAI
 62
     8
420
  8421504
370
    25
100
AcDbLine
 10
344.8017926842849
 20
294.6338650423129
 30
0.0
 11
360.4880639735922
 21
283.7756856741683
 31
0.0
  0
LINE
  5
18C
330
70
100
AcDbEntity
  8
HONTAI
 62
     8
420
  8421504
370
    25
100
AcDbLine
 10
360.4880639735922
 20
283.7756856741683
 30
0.0
 11
346.1185028207484
 21
295.0570586418135
 31
0.0
  0
LINE
  5
18D
330
70
100
AcDbEntity
  8
HONTAI
 62
     8
420
  8421504
370
    25
100
AcDbLine
 10
346.1185028207484
 20
295.0570586418135
 30
0.0
 11
363.7261834641901
 21
283.7756856741683
 31
0.0
  0
LINE
  5
18E
330
70
100
AcDbEntity
  8
HONTAI
 62
     8
420
  8421504
370
    25
100
AcDbLine
 10
363.7261834641901
 20
283.7756856741683
 30
0.0
 11
346.9664492981312
 21
295.494065283214
 31
0.0
  0
LINE
  5
18F
330
70
100
AcDbEntity
  8
HONTAI
 62
     8
420
  8421504
370
    25
100
AcDbLine
 10
346.9664492981312
 20
295.494065283214
 30
0.0
 11
366.3040458894185
 21
283.7756856741683
 31
0.0
  0
LINE
  5
190
330
70
100
AcDbEntity
  8
HONTAI
 62
     8
420
  8421504
370
    25
100
AcDbLine
 10
366.3040458894185
 20
283.7756856741683
 30
0.0
 11
347.3570339790512
 21
295.9416212864239
 31
0.0
  0
LINE
  5
191
330
70
100
AcDbEntity
  8
HONTAI
 62
     8
420
  8421504
370
    25
100
AcDbLine
 10
347.3570339790512
 20
295.9416212864239
 30
0.0
 11
368.1775433084264
 21
283.7756856741683
 31
0.0
  0
LINE
  5
192
330
70
100
AcDbEntity
  8
HONTAI
 62
     8
420
  8421504
370
    25
100
AcDbLine
 10
368.1775433084264
 20
283.7756856741683
 30
0.0
 11
347.2647261149663
 21
296.4242004664968
 31
0.0
  0
LINE
  5
193
330
70
100
AcDbEntity
  8
HONTAI
 62
     8
420
  8421504
370
    25
100
AcDbLine
 10
347.2647261149663
 20
296.4242004664968
 30
0.0
 11
369.3146196609783
 21
283.7756856741683
 31
0.0
  0
LINE
  5
194
330
70
100
AcDbEntity
  8
HONTAI
 62
     8
420
  8421504
370
    25
100
AcDbLine
 10
369.3146196609783
 20
283.7756856741683
 30
0.0
 11
347.3492952317738
 21
296.579126858558
 31
0.0
  0
LINE
  5
195
330
70
100
AcDbEntity
  8
HONTAI
 62
     8
420
  8421504
370
    25
100
AcDbLine
 10
369.695819255413
 20
180.1671807000578
 30
0.0
 11
383.8481291321228
 21
197.0115081958448
 31
0.0
  0
LINE
  5
196
330
70
100
AcDbEntity
  8
HONTAI
 62
     8
420
  8421504
370
    25
100
AcDbLine
 10
383.8481291321228
 20
197.0115081958448
 30
0.0
 11
392.2756225916696
 21
219.2587331902811
 31
0.0
  0
LINE
  5
197
330
70
100
AcDbEntity
  8
HONTAI
 62
     8
420
  8421504
370
    25
100
AcDbLine
 10
330.9538330201316
 20
180.1671807000578
 30
0.0
 11
328.9776870053038
 21
197.0115081958448
 31
0.0
  0
LINE
  5
198
330
70
100
AcDbEntity
  8
HONTAI
 62
     8
420
  8421504
370
    25
100
AcDbLine
 10
325.1404405469779
 20
180.1671807000578
 30
0.0
 11
328.9776870053038
 21
197.0115081958448
 31
0.0
  0
LINE
  5
199
330
70
100
AcDbEntity
  8
HONTAI
 62
     8
420
  8421504
370
    25
100
AcDbLine
 10
328.9776870053038
 20
197.0115081958448
 30
0.0
 11
325.1404405469779
 21
219.2587331902811
 31
0.0
  0
LINE
  5
19A
330
70
100
AcDbEntity
  8
HONTAI
 62
     8
420
  8421504
370
    25
100
AcDbLine
 10
328.9776870053038
 20
197.0115081958448
 30
0.0
 11
333.9010887706963
 21
219.2587331902811
 31
0.0
  0
LINE
  5
19B
330
70
100
AcDbEntity
  8
HONTAI
 62
     8
420
  8421504
370
    25
100
AcDbLine
 10
333.9010887706963
 20
219.2587331902811
 30
0.0
 11
336.5916581504128
 21
197.0115081958448
 31
0.0
  0
LINE
  5
19C
330
70
100
AcDbEntity
  8
HONTAI
 62
     8
420
  8421504
370
    25
100
AcDbLine
 10
336.5916581504128
 20
197.0115081958448
 30
0.0
 11
342.5143850109813
 21
219.2587331902811
 31
0.0
  0
LINE
  5
19D
330
70
100
AcDbEntity
  8
HONTAI
 62
     8
420
  8421504
370
    25
100
AcDbLine
 10
342.5143850109813
 20
219.2587331902811
 30
0.0
 11
344.0096514813616
 21
197.0115081958448
 31
0.0
  0
LINE
  5
19E
330
70
100
AcDbEntity
  8
HONTAI
 62
     8
420
  8421504
370
    25
100
AcDbLine
 10
344.0096514813616
 20
197.0115081958448
 30
0.0
 11
350.8303639384394
 21
219.2587331902811
 31
0.0
  0
LINE
  5
19F
330
70
100
AcDbEntity
  8
HONTAI
 62
     8
420
  8421504
370
    25
100
AcDbLine
 10
350.8303639384394
 20
219.2587331902811
 30
0.0
 11
351.1047430756125
 21
197.0115081958448
 31
0.0
  0
LINE
  5
1A0
330
70
100
AcDbEntity
  8
HONTAI
 62
     8
420
  8421504
370
    25
100
AcDbLine
 10
351.1047430756125
 20
197.0115081958448
 30
0.0
 11
358.7067368479931
 21
219.2587331902811
 31
0.0
  0
LINE
  5
1A1
330
70
100
AcDbEntity
  8
HONTAI
 62
     8
420
  8421504
370
    25
100
AcDbLine
 10
358.7067368479931
 20
219.2587331902811
 30
0.0
 11
357.755533948861
 21
197.0115081958448
 31
0.0
  0
LINE
  5
1A2
330
70
100
AcDbEntity
  8
HONTAI
 62
     8
420
  8421504
370
    25
100
AcDbLine
 10
357.755533948861
 20
197.0115081958448
 30
0.0
 11
366.0087368154
 21
219.2587331902811
 31
0.0
  0
LINE
  5
1A3
330
70
100
AcDbEntity
  8
HONTAI
 62
     8
420
  8421504
370
    25
100
AcDbLine
 10
366.0087368154
 20
219.2587331902811
 30
0.0
 11
363.848227225293
 21
197.0115081958448
 31
0.0
  0
LINE
  5
1A4
330
70
100
AcDbEntity
  8
HONTAI
 62
     8
420
  8421504
370
    25
100
AcDbLine
 10
363.848227225293
 20
197.0115081958448
 30
0.0
 11
372.6114245967729
 21
219.2587331902811
 31
0.0
  0
LINE
  5
1A5
330
70
100
AcDbEntity
  8
HONTAI
 62
     8
420
  8421504
370
    25
100
AcDbLine
 10
372.6114245967729
 20
219.2587331902811
 30
0.0
 11
369.2785752337738
 21
197.0115081958448
 31
0.0
  0
LINE
  5
1A6
330
70
100
AcDbEntity
  8
HONTAI
 62
     8
420
  8421504
370
    25
100
AcDbLine
 10
369.2785752337738
 20
197.0115081958448
 30
0.0
 11
378.4018263735106
 21
219.2587331902811
 31
0.0
  0
LINE
  5
1A7
330
70
100
AcDbEntity
  8
HONTAI
 62
     8
420
  8421504
370
    25
100
AcDbLine
 10
378.4018263735106
 20
219.2587331902811
 30
0.0
 11
373.9536632142606
 21
197.0115081958448
 31
0.0
  0
LINE
  5
1A8
330
70
100
AcDbEntity
  8
HONTAI
 62
     8
420
  8421504
370
    25
100
AcDbLine
 10
373.9536632142606
 20
197.0115081958448
 30
0.0
 11
383.2808667658369
 21
219.2587331902811
 31
0.0
  0
LINE
  5
1A9
330
70
100
AcDbEntity
  8
HONTAI
 62
     8
420
  8421504
370
    25
100
AcDbLine
 10
383.2808667658369
 20
219.2587331902811
 30
0.0
 11
377.7934991152593
 21
197.0115081958448
 31
0.0
  0
LINE
  5
1AA
330
70
100
AcDbEntity
  8
HONTAI
 62
     8
420
  8421504
370
    25
100
AcDbLine
 10
377.7934991152593
 20
197.0115081958448
 30
0.0
 11
387.1650640399023
 21
219.2587331902811
 31
0.0
  0
LINE
  5
1AB
330
70
100
AcDbEntity
  8
HONTAI
 62
     8
420
  8421504
370
    25
100
AcDbLine
 10
387.1650640399023
 20
219.2587331902811
 30
0.0
 11
380.7323822798679
 21
197.0115081958448
 31
0.0
  0
LINE
  5
1AC
330
70
100
AcDbEntity
  8
HONTAI
 62
     8
420
  8421504
370
    25
100
AcDbLine
 10
380.7323822798679
 20
197.0115081958448
 30
0.0
 11
389.9879585034332
 21
219.2587331902811
 31
0.0
  0
LINE
  5
1AD
330
70
100
AcDbEntity
  8
HONTAI
 62
     8
420
  8421504
370
    25
100
AcDbLine
 10
389.9879585034332
 20
219.2587331902811
 30
0.0
 11
382.7200276023663
 21
197.0115081958448
 31
0.0
  0
LINE
  5
1AE
330
70
100
AcDbEntity
  8
HONTAI
 62
     8
420
  8421504
370
    25
100
AcDbLine
 10
382.7200276023663
 20
197.0115081958448
 30
0.0
 11
391.7012496495478
 21
219.2587331902811
 31
0.0
  0
LINE
  5
1AF
330
70
100
AcDbEntity
  8
HONTAI
 62
     8
420
  8421504
370
    25
100
AcDbLine
 10
391.7012496495478
 20
219.2587331902811
 30
0.0
 11
383.7224259201679
 21
197.0115081958448
 31
0.0
  0
LINE
  5
1B0
330
70
100
AcDbEntity
  8
HONTAI
 62
     8
420
  8421504
370
    25
100
AcDbLine
 10
383.7224259201679
 20
197.0115081958448
 30
0.0
 11
392.2756225916696
 21
219.2587331902811
 31
0.0
  0
LINE
  5
1B1
330
70
100
AcDbEntity
  8
HONTAI
 62
     8
420
  8421504
370
    25
100
AcDbLine
 10
330.9538330201316
 20
180.1671807000578
 30
0.0
 11
336.5916581504128
 21
197.0115081958448
 31
0.0
  0
LINE
  5
1B2
330
70
100
AcDbEntity
  8
HONTAI
 62
     8
420
  8421504
370
    25
100
AcDbLine
 10
336.5916581504128
 20
197.0115081958448
 30
0.0
 11
336.6791499025925
 21
180.1671807000578
 31
0.0
  0
LINE
  5
1B3
330
70
100
AcDbEntity
  8
HONTAI
 62
     8
420
  8421504
370
    25
100
AcDbLine
 10
336.6791499025925
 20
180.1671807000578
 30
0.0
 11
344.0096514813616
 21
197.0115081958448
 31
0.0
  0
LINE
  5
1B4
330
70
100
AcDbEntity
  8
HONTAI
 62
     8
420
  8421504
370
    25
100
AcDbLine
 10
344.0096514813616
 20
197.0115081958448
 30
0.0
 11
342.1894472955898
 21
180.1671807000578
 31
0.0
  0
LINE
  5
1B5
330
70
100
AcDbEntity
  8
HONTAI
 62
     8
420
  8421504
370
    25
100
AcDbLine
 10
342.1894472955898
 20
180.1671807000578
 30
0.0
 11
351.1047430756125
 21
197.0115081958448
 31
0.0
  0
LINE
  5
1B6
330
70
100
AcDbEntity
  8
HONTAI
 62
     8
420
  8421504
370
    25
100
AcDbLine
 10
351.1047430756125
 20
197.0115081958448
 30
0.0
 11
347.4168351798593
 21
180.1671807000578
 31
0.0
  0
LINE
  5
1B7
330
70
100
AcDbEntity
  8
HONTAI
 62
     8
420
  8421504
370
    25
100
AcDbLine
 10
347.4168351798593
 20
180.1671807000578
 30
0.0
 11
357.755533948861
 21
197.0115081958448
 31
0.0
  0
LINE
  5
1B8
330
70
100
AcDbEntity
  8
HONTAI
 62
     8
420
  8421504
370
    25
100
AcDbLine
 10
357.755533948861
 20
197.0115081958448
 30
0.0
 11
352.2630234696973
 21
180.1671807000578
 31
0.0
  0
LINE
  5
1B9
330
70
100
AcDbEntity
  8
HONTAI
 62
     8
420
  8421504
370
    25
100
AcDbLine
 10
352.2630234696973
 20
180.1671807000578
 30
0.0
 11
363.848227225293
 21
197.0115081958448
 31
0.0
  0
LINE
  5
1BA
330
70
100
AcDbEntity
  8
HONTAI
 62
     8
420
  8421504
370
    25
100
AcDbLine
 10
363.848227225293
 20
197.0115081958448
 30
0.0
 11
356.6450925398612
 21
180.1671807000578
 31
0.0
  0
LINE
  5
1BB
330
70
100
AcDbEntity
  8
HONTAI
 62
     8
420
  8421504
370
    25
100
AcDbLine
 10
356.6450925398612
 20
180.1671807000578
 30
0.0
 11
369.2785752337738
 21
197.0115081958448
 31
0.0
  0
LINE
  5
1BC
330
70
100
AcDbEntity
  8
HONTAI
 62
     8
420
  8421504
370
    25
100
AcDbLine
 10
369.2785752337738
 20
197.0115081958448
 30
0.0
 11
360.4880639735922
 21
180.1671807000578
 31
0.0
  0
LINE
  5
1BD
330
70
100
AcDbEntity
  8
HONTAI
 62
     8
420
  8421504
370
    25
100
AcDbLine
 10
360.4880639735922
 20
180.1671807000578
 30
0.0
 11
373.9536632142606
 21
197.0115081958448
 31
0.0
  0
LINE
  5
1BE
330
70
100
AcDbEntity
  8
HONTAI
 62
     8
420
  8421504
370
    25
100
AcDbLine
 10
373.9536632142606
 20
197.0115081958448
 30
0.0
 11
363.7261834641901
 21
180.1671807000578
 31
0.0
  0
LINE
  5
1BF
330
70
100
AcDbEntity
  8
HONTAI
 62
     8
420
  8421504
370
    25
100
AcDbLine
 10
363.7261834641901
 20
180.1671807000578
 30
0.0
 11
377.7934991152593
 21
197.0115081958448
 31
0.0
  0
LINE
  5
1C0
330
70
100
AcDbEntity
  8
HONTAI
 62
     8
420
  8421504
370
    25
100
AcDbLine
 10
377.7934991152593
 20
197.0115081958448
 30
0.0
 11
366.3040458894185
 21
180.1671807000578
 31
0.0
  0
LINE
  5
1C1
330
70
100
AcDbEntity
  8
HONTAI
 62
     8
420
  8421504
370
    25
100
AcDbLine
 10
366.3040458894185
 20
180.1671807000578
 30
0.0
 11
380.7323822798679
 21
197.0115081958448
 31
0.0
  0
LINE
  5
1C2
330
70
100
AcDbEntity
  8
HONTAI
 62
     8
420
  8421504
370
    25
100
AcDbLine
 10
380.7323822798679
 20
197.0115081958448
 30
0.0
 11
368.1775433084264
 21
180.1671807000578
 31
0.0
  0
LINE
  5
1C3
330
70
100
AcDbEntity
  8
HONTAI
 62
     8
420
  8421504
370
    25
100
AcDbLine
 10
368.1775433084264
 20
180.1671807000578
 30
0.0
 11
382.7200276023663
 21
197.0115081958448
 31
0.0
  0
LINE
  5
1C4
330
70
100
AcDbEntity
  8
HONTAI
 62
     8
420
  8421504
370
    25
100
AcDbLine
 10
382.7200276023663
 20
197.0115081958448
 30
0.0
 11
369.3146196609783
 21
180.1671807000578
 31
0.0
  0
LINE
  5
1C5
330
70
100
AcDbEntity
  8
HONTAI
 62
     8
420
  8421504
370
    25
100
AcDbLine
 10
369.3146196609783
 20
180.1671807000578
 30
0.0
 11
383.7224259201679
 21
197.0115081958448
 31
0.0
  0
LINE
  5
1C6
330
70
100
AcDbEntity
  8
HONTAI
 62
     8
420
  8421504
370
    25
100
AcDbLine
 10
383.7224259201679
 20
197.0115081958448
 30
0.0
 11
369.695819255413
 21
180.1671807000578
 31
0.0
  0
LINE
  5
1C7
330
70
100
AcDbEntity
  8
HONTAI
 62
     8
420
  8421504
370
    25
100
AcDbLine
 10
325.1404405469779
 20
244.6841331839299
 30
0.0
 11
325.1404405469779
 21
219.2587331902811
 31
0.0
  0
ELLIPSE
  5
1C8
330
70
100
AcDbEntity
  8
HONTAI
 62
     8
420
  8421504
370
    25
100
AcDbEllipse
 10
325.1378511043316
 20
296.0988385818804
 30
0.0
 11
22.24722499443791
 21
0.0
 31
0.0
210
0.0
220
0.0
230
1.0
 40
0.1407922916819243
 41
0.0
 42
6.283185307179584
  0
SPLINE
  5
1C9
330
70
100
AcDbEntity
  8
HONTAI
 62
     8
420
  8421504
370
    25
100
AcDbSpline
210
0.0
220
0.0
230
1.0
 70
     8
 71
     3
 72
    11
 73
     7
 74
     0
 42
0.0000000001
 43
0.0000000001
 40
0.0
 40
0.0
 40
0.0
 40
0.0
 40
1.0
 40
1.0
 40
1.0
 40
2.0
 40
2.0
 40
2.0
 40
2.0
 10
301.3396767102813
 20
167.3637395156418
 30
0.0
 10
301.3396767102813
 20
164.7079725597461
 30
0.0
 10
311.9944823126837
 20
162.5550480630724
 30
0.0
 10
325.1378511043316
 20
162.5550480630724
 30
0.0
 10
338.2812198959796
 20
162.5550480630724
 30
0.0
 10
348.936025498382
 20
164.7079725597461
 30
0.0
 10
348.936025498382
 20
167.3637395156418
 30
0.0
  0
LINE
  5
1CA
330
70
100
AcDbEntity
  8
HONTAI
 62
     8
420
  8421504
370
    25
100
AcDbLine
 10
347.6881037930924
 20
165.8270205958007
 30
0.0
 11
369.695819255413
 21
180.1671807000578
 31
0.0
  0
LINE
  5
1CB
330
70
100
AcDbEntity
  8
HONTAI
 62
     8
420
  8421504
370
    25
100
AcDbLine
 10
325.1404405469651
 20
180.1671807000578
 30
0.0
 11
326.8567394975318
 21
162.5676075677785
 31
0.0
  0
LINE
  5
1CC
330
70
100
AcDbEntity
  8
HONTAI
 62
     8
420
  8421504
370
    25
100
AcDbLine
 10
326.8567394975318
 20
162.5676075677785
 30
0.0
 11
330.9538330201316
 21
180.1671807000578
 31
0.0
  0
LINE
  5
1CD
330
70
100
AcDbEntity
  8
HONTAI
 62
     8
420
  8421504
370
    25
100
AcDbLine
 10
330.953833019986
 20
180.1671806995586
 30
0.0
 11
329.8611620432712
 21
162.6507111103977
 31
0.0
  0
LINE
  5
1CE
330
70
100
AcDbEntity
  8
HONTAI
 62
     8
420
  8421504
370
    25
100
AcDbLine
 10
329.8611620432712
 20
162.6507111103977
 30
0.0
 11
336.6791499025925
 21
180.1671807000578
 31
0.0
  0
LINE
  5
1CF
330
70
100
AcDbEntity
  8
HONTAI
 62
     8
420
  8421504
370
    25
100
AcDbLine
 10
336.6791499025925
 20
180.1671807000578
 30
0.0
 11
332.7507748430924
 21
162.8077308282652
 31
0.0
  0
LINE
  5
1D0
330
70
100
AcDbEntity
  8
HONTAI
 62
     8
420
  8421504
370
    25
100
AcDbLine
 10
332.7507748430924
 20
162.8077308282652
 30
0.0
 11
342.1894472955898
 21
180.1671807000578
 31
0.0
  0
LINE
  5
1D1
330
70
100
AcDbEntity
  8
HONTAI
 62
     8
420
  8421504
370
    25
100
AcDbLine
 10
342.1894472955898
 20
180.1671807000578
 30
0.0
 11
335.4940174023318
 21
163.034233988934
 31
0.0
  0
LINE
  5
1D2
330
70
100
AcDbEntity
  8
HONTAI
 62
     8
420
  8421504
370
    25
100
AcDbLine
 10
335.4940174023318
 20
163.034233988934
 30
0.0
 11
347.4168351798593
 21
180.1671807000578
 31
0.0
  0
LINE
  5
1D3
330
70
100
AcDbEntity
  8
HONTAI
 62
     8
420
  8421504
370
    25
100
AcDbLine
 10
347.4168351798593
 20
180.1671807000578
 30
0.0
 11
337.8679486017234
 21
163.3484513480907
 31
0.0
  0
LINE
  5
1D4
330
70
100
AcDbEntity
  8
HONTAI
 62
     8
420
  8421504
370
    25
100
AcDbLine
 10
337.8679486017234
 20
163.3484513480907
 30
0.0
 11
352.2630234696973
 21
180.1671807000578
 31
0.0
  0
LINE
  5
1D5
330
70
100
AcDbEntity
  8
HONTAI
 62
     8
420
  8421504
370
    25
100
AcDbLine
 10
352.2630234696973
 20
180.1671807000578
 30
0.0
 11
339.990450150846
 21
163.6065205795974
 31
0.0
  0
LINE
  5
1D6
330
70
100
AcDbEntity
  8
HONTAI
 62
     8
420
  8421504
370
    25
100
AcDbLine
 10
339.990450150846
 20
163.6065205795974
 30
0.0
 11
356.6450925398477
 21
180.1671807000578
 31
0.0
  0
LINE
  5
1D7
330
70
100
AcDbEntity
  8
HONTAI
 62
     8
420
  8421504
370
    25
100
AcDbLine
 10
356.6450925398477
 20
180.1671807000578
 30
0.0
 11
341.9222796163802
 21
163.9547298579553
 31
0.0
  0
LINE
  5
1D8
330
70
100
AcDbEntity
  8
HONTAI
 62
     8
420
  8421504
370
    25
100
AcDbLine
 10
341.9222796163802
 20
163.9547298579553
 30
0.0
 11
360.4880639735922
 21
180.1671807000578
 31
0.0
  0
LINE
  5
1D9
330
70
100
AcDbEntity
  8
HONTAI
 62
     8
420
  8421504
370
    25
100
AcDbLine
 10
360.4880639735922
 20
180.1671807000578
 30
0.0
 11
343.5272284682703
 21
164.3114496644667
 31
0.0
  0
LINE
  5
1DA
330
70
100
AcDbEntity
  8
HONTAI
 62
     8
420
  8421504
370
    25
100
AcDbLine
 10
343.5272284682703
 20
164.3114496644667
 30
0.0
 11
363.7261834641901
 21
180.1671807000578
 31
0.0
  0
LINE
  5
1DB
330
70
100
AcDbEntity
  8
HONTAI
 62
     8
420
  8421504
370
    25
100
AcDbLine
 10
363.7261834641901
 20
180.1671807000578
 30
0.0
 11
344.7787707256037
 21
164.6483823134065
 31
0.0
  0
LINE
  5
1DC
330
70
100
AcDbEntity
  8
HONTAI
 62
     8
420
  8421504
370
    25
100
AcDbLine
 10
344.7787707256037
 20
164.6483823134065
 30
0.0
 11
366.3040458893954
 21
180.1671807000578
 31
0.0
  0
LINE
  5
1DD
330
70
100
AcDbEntity
  8
HONTAI
 62
     8
420
  8421504
370
    25
100
AcDbLine
 10
366.3040458893954
 20
180.1671807000578
 30
0.0
 11
345.6716989202976
 21
164.9329976531041
 31
0.0
  0
LINE
  5
1DE
330
70
100
AcDbEntity
  8
HONTAI
 62
     8
420
  8421504
370
    25
100
AcDbLine
 10
345.6716989202976
 20
164.9329976531041
 30
0.0
 11
368.1775433084264
 21
180.1671807000578
 31
0.0
  0
LINE
  5
1DF
330
70
100
AcDbEntity
  8
HONTAI
 62
     8
420
  8421504
370
    25
100
AcDbLine
 10
368.1775433084264
 20
180.1671807000578
 30
0.0
 11
346.2271977426099
 21
165.1356287598487
 31
0.0
  0
LINE
  5
1E0
330
70
100
AcDbEntity
  8
HONTAI
 62
     8
420
  8421504
370
    25
100
AcDbLine
 10
346.2271977426099
 20
165.1356287598487
 30
0.0
 11
369.3146196609783
 21
180.1671807000578
 31
0.0
  0
LINE
  5
1E1
330
70
100
AcDbEntity
  8
HONTAI
 62
     8
420
  8421504
370
    25
100
AcDbLine
 10
369.3146196609783
 20
180.1671807000578
 30
0.0
 11
347.6881037930924
 21
165.8270205958007
 31
0.0
  0
LINE
  5
1E2
330
70
100
AcDbEntity
  8
HONTAI
 62
     8
420
  8421504
370
    25
100
AcDbLine
 10
334.0877486807399
 20
293.231240185406
 30
0.0
 11
334.0877486807399
 21
293.231240185406
 31
0.0
  0
LINE
  5
1E4
330
70
100
AcDbEntity
  8
0-HONTAI
 62
     2
420
 16776960
370
    25
100
AcDbLine
 10
465.5179713657217
 20
209.3168077888061
 30
0.0
 11
465.5179787798759
 21
200.7534961044697
 31
0.0
  0
LINE
  5
1E5
330
70
100
AcDbEntity
  8
0-HONTAI
 62
     2
420
 16776960
370
    25
100
AcDbLine
 10
463.0771312052655
 20
211.3508376750153
 30
0.0
 11
463.077135784048
 21
206.0623544763364
 31
0.0
  0
LINE
  5
1E6
330
70
100
AcDbEntity
  8
0-HONTAI
 62
     2
420
 16776960
370
    25
100
AcDbLine
 10
456.1614224069969
 20
211.3508316873716
 30
0.0
 11
456.1614269857801
 21
206.062348488694
 31
0.0
  0
LINE
  5
1E7
330
70
100
AcDbEntity
  8
0-HONTAI
 62
     2
420
 16776960
370
    25
100
AcDbLine
 10
453.7205857686831
 20
209.3167975745925
 30
0.0
 11
453.7205931828378
 21
200.7534858902496
 31
0.0
  0
LINE
  5
1E8
330
70
100
AcDbEntity
  8
0-HONTAI
 62
     2
420
 16776960
370
    25
100
AcDbLine
 10
462.0601095700799
 20
217.8597391928511
 30
0.0
 11
461.6533031701859
 21
217.8597388406308
 31
0.0
  0
LINE
  5
1E9
330
70
100
AcDbEntity
  8
0-HONTAI
 62
     2
420
 16776960
370
    25
100
AcDbLine
 10
456.5682284546707
 20
211.7576384394731
 30
0.0
 11
462.6703244531506
 21
211.7576437226945
 31
0.0
  0
LINE
  5
1EA
330
70
100
AcDbEntity
  8
0-HONTAI
 62
     2
420
 16776960
370
    25
100
AcDbLine
 10
461.6533031701859
 20
217.8597388406308
 30
0.0
 11
461.6533084534122
 21
211.7576428421586
 31
0.0
  0
LINE
  5
1EB
330
70
100
AcDbEntity
  8
0-HONTAI
 62
     2
420
 16776960
370
    25
100
AcDbLine
 10
457.1784327713125
 20
217.8597349662683
 30
0.0
 11
457.5852391712168
 21
217.859735318484
 31
0.0
  0
SPLINE
  5
1EC
330
70
100
AcDbEntity
  8
0-HONTAI
 62
     2
420
 16776960
370
    25
100
AcDbSpline
210
0.0
220
0.0
230
1.0
 70
     8
 71
     3
 72
     8
 73
     4
 74
     0
 42
0.0000000001
 43
0.0000000001
 40
0.0
 40
0.0
 40
0.0
 40
0.0
 40
1.0
 40
1.0
 40
1.0
 40
1.0
 10
454.1273918163716
 20
209.7236043267033
 30
0.0
 10
453.9027188455742
 20
209.7236041321802
 30
0.0
 10
453.7205855741654
 20
209.5414705453879
 30
0.0
 10
453.7205857686881
 20
209.3167975745906
 30
0.0
  0
SPLINE
  5
1ED
330
70
100
AcDbEntity
  8
0-HONTAI
 62
     2
420
 16776960
370
    25
100
AcDbSpline
210
0.0
220
0.0
230
1.0
 70
     8
 71
     3
 72
     8
 73
     4
 74
     0
 42
0.0000000001
 43
0.0000000001
 40
0.0
 40
0.0
 40
0.0
 40
0.0
 40
1.0
 40
1.0
 40
1.0
 40
1.0
 10
456.5682284546803
 20
211.7576384394833
 30
0.0
 10
456.343555483883
 20
211.75763824496
 30
0.0
 10
456.1614222124742
 20
211.5755046581683
 30
0.0
 10
456.1614224069969
 20
211.3508316873709
 30
0.0
  0
LINE
  5
1EE
330
70
100
AcDbEntity
  8
0-HONTAI
 62
     2
420
 16776960
370
    25
100
AcDbLine
 10
454.1273918163665
 20
209.7236043266984
 30
0.0
 11
456.161423815851
 21
209.723606087775
 31
0.0
  0
LINE
  5
1EF
330
70
100
AcDbEntity
  8
0-HONTAI
 62
     2
420
 16776960
370
    25
100
AcDbLine
 10
457.1784327713125
 20
217.8597349662683
 30
0.0
 11
457.1784380545323
 21
211.7576389677961
 31
0.0
  0
LINE
  5
1F0
330
70
100
AcDbEntity
  8
0-HONTAI
 62
     2
420
 16776960
370
    25
100
AcDbLine
 10
457.5852391712168
 20
217.859735318484
 30
0.0
 11
457.5852444544264
 21
211.7576393200086
 31
0.0
  0
SPLINE
  5
1F1
330
70
100
AcDbEntity
  8
0-HONTAI
 62
     2
420
 16776960
370
    25
100
AcDbSpline
210
0.0
220
0.0
230
1.0
 70
     8
 71
     3
 72
     8
 73
     4
 74
     0
 42
0.0000000001
 43
0.0000000001
 40
0.0
 40
0.0
 40
0.0
 40
0.0
 40
1.0
 40
1.0
 40
1.0
 40
1.0
 10
465.5179713657223
 20
209.3168077888067
 30
0.0
 10
465.5179711711996
 20
209.5414807596041
 30
0.0
 10
465.3358375844073
 20
209.7236140310136
 30
0.0
 10
465.1111646136099
 20
209.7236138364908
 30
0.0
  0
SPLINE
  5
1F2
330
70
100
AcDbEntity
  8
0-HONTAI
 62
     2
420
 16776960
370
    25
100
AcDbSpline
210
0.0
220
0.0
230
1.0
 70
     8
 71
     3
 72
     8
 73
     4
 74
     0
 42
0.0000000001
 43
0.0000000001
 40
0.0
 40
0.0
 40
0.0
 40
0.0
 40
1.0
 40
1.0
 40
1.0
 40
1.0
 10
463.0771312052726
 20
211.3508376750088
 30
0.0
 10
463.0771310107498
 20
211.5755106458062
 30
0.0
 10
462.8949974239575
 20
211.7576439172156
 30
0.0
 10
462.6703244531602
 20
211.7576437226929
 30
0.0
  0
LINE
  5
1F3
330
70
100
AcDbEntity
  8
0-HONTAI
 62
     2
420
 16776960
370
    25
100
AcDbLine
 10
463.0771326141196
 20
209.7236120754171
 30
0.0
 11
465.1111646136176
 21
209.7236138364851
 31
0.0
  0
LINE
  5
1F4
330
70
100
AcDbEntity
  8
0-HONTAI
 62
     2
420
 16776960
370
    25
100
AcDbLine
 10
462.0601095700799
 20
217.8597391928511
 30
0.0
 11
462.0601148533024
 21
211.7576431943712
 31
0.0
  0
LINE
  5
1F5
330
70
100
AcDbEntity
  8
0-HONTAI
 62
     2
420
 16776960
370
    25
100
AcDbLine
 10
456.5682337378944
 20
205.6555424410061
 30
0.0
 11
462.6703297363614
 21
205.6555477242208
 31
0.0
  0
LINE
  5
1F6
330
70
100
AcDbEntity
  8
0-HONTAI
 62
     2
420
 16776960
370
    25
100
AcDbLine
 10
462.8271186760948
 20
191.417323863526
 30
0.0
 11
459.6192940646429
 21
191.4173210861801
 31
0.0
  0
SPLINE
  5
1F7
330
70
100
AcDbEntity
  8
0-HONTAI
 62
     2
420
 16776960
370
    25
100
AcDbSpline
210
0.0
220
0.0
230
1.0
 70
     8
 71
     3
 72
     8
 73
     4
 74
     0
 42
0.0000000001
 43
0.0000000001
 40
0.0
 40
0.0
 40
0.0
 40
0.0
 40
1.0
 40
1.0
 40
1.0
 40
1.0
 10
453.7205931828211
 20
200.7534858902566
 30
0.0
 10
453.7205937348215
 20
200.1159266426132
 30
0.0
 10
453.8704467529229
 20
199.487292931161
 30
0.0
 10
454.1580638866487
 20
198.9182954103901
 30
0.0
  0
SPLINE
  5
1F8
330
70
100
AcDbEntity
  8
0-HONTAI
 62
     2
420
 16776960
370
    25
100
AcDbSpline
210
0.0
220
0.0
230
1.0
 70
     8
 71
     3
 72
     8
 73
     4
 74
     0
 42
0.0000000001
 43
0.0000000001
 40
0.0
 40
0.0
 40
0.0
 40
0.0
 40
1.0
 40
1.0
 40
1.0
 40
1.0
 10
456.6024651227431
 20
194.2676591899631
 30
0.0
 10
456.4207379433471
 20
194.8467175377367
 30
0.0
 10
456.2113980725926
 20
195.4167455886357
 30
0.0
 10
455.9751641134903
 20
195.9757866018218
 30
0.0
  0
SPLINE
  5
1F9
330
70
100
AcDbEntity
  8
0-HONTAI
 62
     2
420
 16776960
370
    25
100
AcDbSpline
210
0.0
220
0.0
230
1.0
 70
     8
 71
     3
 72
     8
 73
     4
 74
     0
 42
0.0000000001
 43
0.0000000001
 40
0.0
 40
0.0
 40
0.0
 40
0.0
 40
1.0
 40
1.0
 40
1.0
 40
1.0
 10
456.1614269857897
 20
206.0623484886914
 30
0.0
 10
456.1614271803118
 20
205.8376755178941
 30
0.0
 10
456.3435607671041
 20
205.6555422464846
 30
0.0
 10
456.5682337379015
 20
205.6555424410074
 30
0.0
  0
SPLINE
  5
1FA
330
70
100
AcDbEntity
  8
0-HONTAI
 62
     2
420
 16776960
370
    25
100
AcDbSpline
210
0.0
220
0.0
230
1.0
 70
     8
 71
     3
 72
     8
 73
     4
 74
     0
 42
0.0000000001
 43
0.0000000001
 40
0.0
 40
0.0
 40
0.0
 40
0.0
 40
1.0
 40
1.0
 40
1.0
 40
1.0
 10
454.1580638866943
 20
198.9182954103093
 30
0.0
 10
454.6790553133706
 20
197.8876098378546
 30
0.0
 10
455.2869559533676
 20
196.9032100994725
 30
0.0
 10
455.9751641135584
 20
195.9757866017198
 30
0.0
  0
LINE
  5
1FB
330
70
100
AcDbEntity
  8
0-HONTAI
 62
     2
420
 16776960
370
    25
100
AcDbLine
 10
456.4114694531769
 20
191.4173183088387
 30
0.0
 11
459.6192940646429
 21
191.4173210861801
 31
0.0
  0
SPLINE
  5
1FC
330
70
100
AcDbEntity
  8
0-HONTAI
 62
     2
420
 16776960
370
    25
100
AcDbSpline
210
0.0
220
0.0
230
1.0
 70
     8
 71
     3
 72
     8
 73
     4
 74
     0
 42
0.0000000001
 43
0.0000000001
 40
0.0
 40
0.0
 40
0.0
 40
0.0
 40
1.0
 40
1.0
 40
1.0
 40
1.0
 10
456.4114694531782
 20
191.4173183088342
 30
0.0
 10
456.8476155779956
 20
192.3053124026826
 30
0.0
 10
456.9162386196362
 20
193.3294144747556
 30
0.0
 10
456.6024651227579
 20
194.2676591899336
 30
0.0
  0
SPLINE
  5
1FD
330
70
100
AcDbEntity
  8
0-HONTAI
 62
     2
420
 16776960
370
    25
100
AcDbSpline
210
0.0
220
0.0
230
1.0
 70
     8
 71
     3
 72
     8
 73
     4
 74
     0
 42
0.0000000001
 43
0.0000000001
 40
0.0
 40
0.0
 40
0.0
 40
0.0
 40
1.0
 40
1.0
 40
1.0
 40
1.0
 10
463.2634161223133
 20
195.9757929120451
 30
0.0
 10
463.0271831312411
 20
195.4167514897745
 30
0.0
 10
462.8178442475435
 20
194.8467230763607
 30
0.0
 10
462.6361180708439
 20
194.2676644138861
 30
0.0
  0
SPLINE
  5
1FE
330
70
100
AcDbEntity
  8
0-HONTAI
 62
     2
420
 16776960
370
    25
100
AcDbSpline
210
0.0
220
0.0
230
1.0
 70
     8
 71
     3
 72
     8
 73
     4
 74
     0
 42
0.0000000001
 43
0.0000000001
 40
0.0
 40
0.0
 40
0.0
 40
0.0
 40
1.0
 40
1.0
 40
1.0
 40
1.0
 10
463.2634161223095
 20
195.9757929120162
 30
0.0
 10
463.951622676554
 20
196.9032176014701
 30
0.0
 10
464.5595216119469
 20
197.8876183924908
 30
0.0
 10
465.0805112538709
 20
198.9183048670896
 30
0.0
  0
SPLINE
  5
1FF
330
70
100
AcDbEntity
  8
0-HONTAI
 62
     2
420
 16776960
370
    25
100
AcDbSpline
210
0.0
220
0.0
230
1.0
 70
     8
 71
     3
 72
     8
 73
     4
 74
     0
 42
0.0000000001
 43
0.0000000001
 40
0.0
 40
0.0
 40
0.0
 40
0.0
 40
1.0
 40
1.0
 40
1.0
 40
1.0
 10
462.6703297363723
 20
205.6555477242188
 30
0.0
 10
462.895002707169
 20
205.6555479187422
 30
0.0
 10
463.0771359785779
 20
205.8376815055346
 30
0.0
 10
463.0771357840558
 20
206.0623544763313
 30
0.0
  0
SPLINE
  5
200
330
70
100
AcDbEntity
  8
0-HONTAI
 62
     2
420
 16776960
370
    25
100
AcDbSpline
210
0.0
220
0.0
230
1.0
 70
     8
 71
     3
 72
     8
 73
     4
 74
     0
 42
0.0000000001
 43
0.0000000001
 40
0.0
 40
0.0
 40
0.0
 40
0.0
 40
1.0
 40
1.0
 40
1.0
 40
1.0
 10
465.080511253883
 20
198.9183048670999
 30
0.0
 10
465.3681274023217
 20
199.4873028859037
 30
0.0
 10
465.5179793318724
 20
200.115936856832
 30
0.0
 10
465.5179787798719
 20
200.7534961044671
 30
0.0
  0
SPLINE
  5
201
330
70
100
AcDbEntity
  8
0-HONTAI
 62
     2
420
 16776960
370
    25
100
AcDbSpline
210
0.0
220
0.0
230
1.0
 70
     8
 71
     3
 72
     8
 73
     4
 74
     0
 42
0.0000000001
 43
0.0000000001
 40
0.0
 40
0.0
 40
0.0
 40
0.0
 40
1.0
 40
1.0
 40
1.0
 40
1.0
 10
462.636118070851
 20
194.2676644138803
 30
0.0
 10
462.3223461986462
 20
193.3294191553719
 30
0.0
 10
462.3909710136297
 20
192.3053172021294
 30
0.0
 10
462.8271186761038
 20
191.4173238635177
 30
0.0
  0
LINE
  5
203
330
70
100
AcDbEntity
  8
TOUGU
  6
AI-Linetype-0
 62
     3
420
    65280
370
    25
100
AcDbLine
 10
424.2797707635585
 20
150.0026435050895
 30
0.0
 11
424.2797707635585
 21
144.8578083361739
 31
0.0
  0
SPLINE
  5
205
330
70
100
AcDbEntity
  8
TOUGU
  6
AI-Linetype-1
 62
     3
420
    65280
370
    25
100
AcDbSpline
210
0.0
220
0.0
230
1.0
 70
     8
 71
     3
 72
    11
 73
     7
 74
     0
 42
0.0000000001
 43
0.0000000001
 40
0.0
 40
0.0
 40
0.0
 40
0.0
 40
1.0
 40
1.0
 40
1.0
 40
2.0
 40
2.0
 40
2.0
 40
2.0
 10
414.9232235658978
 20
144.7859843212945
 30
0.0
 10
416.3835978760815
 20
144.7859843212945
 30
0.0
 10
417.5674651652369
 20
145.9698516104499
 30
0.0
 10
417.5674651652369
 20
147.430225920633
 30
0.0
 10
417.5674651652369
 20
148.8906002308167
 30
0.0
 10
416.3835978760815
 20
150.0744675199721
 30
0.0
 10
414.9232235658978
 20
150.0744675199721
 30
0.0
  0
SPLINE
  5
207
330
70
100
AcDbEntity
  8
TOUGU
  6
AI-Linetype-2
 62
     3
420
    65280
370
    25
100
AcDbSpline
210
0.0
220
0.0
230
1.0
 70
     8
 71
     3
 72
    11
 73
     7
 74
     0
 42
0.0000000001
 43
0.0000000001
 40
0.0
 40
0.0
 40
0.0
 40
0.0
 40
1.0
 40
1.0
 40
1.0
 40
2.0
 40
2.0
 40
2.0
 40
2.0
 10
414.9232235658978
 20
145.1927907211924
 30
0.0
 10
416.1589249052835
 20
145.1927907211924
 30
0.0
 10
417.160658765339
 20
146.1945245812479
 30
0.0
 10
417.160658765339
 20
147.430225920633
 30
0.0
 10
417.160658765339
 20
148.6659272600187
 30
0.0
 10
416.1589249052835
 20
149.6676611200741
 30
0.0
 10
414.9232235658978
 20
149.6676611200741
 30
0.0
  0
SPLINE
  5
209
330
70
100
AcDbEntity
  8
TOUGU
  6
AI-Linetype-3
 62
     3
420
    65280
370
    25
100
AcDbSpline
210
0.0
220
0.0
230
1.0
 70
     8
 71
     3
 72
    11
 73
     7
 74
     0
 42
0.0000000001
 43
0.0000000001
 40
0.0
 40
0.0
 40
0.0
 40
0.0
 40
1.0
 40
1.0
 40
1.0
 40
2.0
 40
2.0
 40
2.0
 40
2.0
 10
414.7198203659578
 20
145.599597121091
 30
0.0
 10
415.7308487345462
 20
145.599597121091
 30
0.0
 10
416.5504491655005
 20
146.4191975520452
 30
0.0
 10
416.5504491655005
 20
147.430225920633
 30
0.0
 10
416.5504491655005
 20
148.4412542892213
 30
0.0
 10
415.7308487345462
 20
149.2608547201756
 30
0.0
 10
414.7198203659578
 20
149.2608547201756
 30
0.0
  0
SPLINE
  5
20B
330
70
100
AcDbEntity
  8
TOUGU
  6
AI-Linetype-4
 62
     3
420
    65280
370
    25
100
AcDbSpline
210
0.0
220
0.0
230
1.0
 70
     8
 71
     3
 72
    11
 73
     7
 74
     0
 42
0.0000000001
 43
0.0000000001
 40
0.0
 40
0.0
 40
0.0
 40
0.0
 40
1.0
 40
1.0
 40
1.0
 40
2.0
 40
2.0
 40
2.0
 40
2.0
 10
407.1939019678442
 20
150.0744675199721
 30
0.0
 10
405.7335276576611
 20
150.0744675199721
 30
0.0
 10
404.5496603685051
 20
148.8906002308167
 30
0.0
 10
404.5496603685051
 20
147.430225920633
 30
0.0
 10
404.5496603685051
 20
145.9698516104499
 30
0.0
 10
405.7335276576611
 20
144.7859843212945
 30
0.0
 10
407.1939019678442
 20
144.7859843212945
 30
0.0
  0
SPLINE
  5
20D
330
70
100
AcDbEntity
  8
TOUGU
  6
AI-Linetype-5
 62
     3
420
    65280
370
    25
100
AcDbSpline
210
0.0
220
0.0
230
1.0
 70
     8
 71
     3
 72
    11
 73
     7
 74
     0
 42
0.0000000001
 43
0.0000000001
 40
0.0
 40
0.0
 40
0.0
 40
0.0
 40
1.0
 40
1.0
 40
1.0
 40
2.0
 40
2.0
 40
2.0
 40
2.0
 10
407.1939019678442
 20
149.6676611200741
 30
0.0
 10
405.9582006284585
 20
149.6676611200741
 30
0.0
 10
404.9564667684037
 20
148.6659272600187
 30
0.0
 10
404.9564667684037
 20
147.430225920633
 30
0.0
 10
404.9564667684037
 20
146.1945245812479
 30
0.0
 10
405.9582006284585
 20
145.1927907211924
 30
0.0
 10
407.1939019678442
 20
145.1927907211924
 30
0.0
  0
SPLINE
  5
20F
330
70
100
AcDbEntity
  8
TOUGU
  6
AI-Linetype-6
 62
     3
420
    65280
370
    25
100
AcDbSpline
210
0.0
220
0.0
230
1.0
 70
     8
 71
     3
 72
    11
 73
     7
 74
     0
 42
0.0000000001
 43
0.0000000001
 40
0.0
 40
0.0
 40
0.0
 40
0.0
 40
1.0
 40
1.0
 40
1.0
 40
2.0
 40
2.0
 40
2.0
 40
2.0
 10
409.4313371672796
 20
149.2608547201756
 30
0.0
 10
408.4203087986912
 20
149.2608547201756
 30
0.0
 10
407.600708367737
 20
148.4412542892213
 30
0.0
 10
407.600708367737
 20
147.430225920633
 30
0.0
 10
407.600708367737
 20
146.4191975520452
 30
0.0
 10
408.4203087986912
 20
145.599597121091
 30
0.0
 10
409.4313371672796
 20
145.599597121091
 30
0.0
  0
LINE
  5
211
330
70
100
AcDbEntity
  8
TOUGU
  6
AI-Linetype-7
 62
     3
420
    65280
370
    25
100
AcDbLine
 10
413.9062075661561
 20
149.2608547201775
 30
0.0
 11
413.9062075661561
 21
145.5995971210897
 31
0.0
  0
LINE
  5
213
330
70
100
AcDbEntity
  8
TOUGU
  6
AI-Linetype-8
 62
     3
420
    65280
370
    25
100
AcDbLine
 10
410.2449499670678
 20
149.2608547201775
 30
0.0
 11
410.2449499670678
 21
145.5995971210897
 31
0.0
  0
LINE
  5
215
330
70
100
AcDbEntity
  8
TOUGU
  6
AI-Linetype-9
 62
     3
420
    65280
370
    25
100
AcDbLine
 10
410.7026071669548
 20
149.2608547201775
 30
0.0
 11
410.7026071669548
 21
145.5995971210897
 31
0.0
  0
LINE
  5
217
330
70
100
AcDbEntity
  8
TOUGU
  6
AI-Linetype-10
 62
     3
420
    65280
370
    25
100
AcDbLine
 10
411.160264366847
 20
149.2608547201775
 30
0.0
 11
411.160264366847
 21
145.5995971210897
 31
0.0
  0
LINE
  5
219
330
70
100
AcDbEntity
  8
TOUGU
  6
AI-Linetype-11
 62
     3
420
    65280
370
    25
100
AcDbLine
 10
411.617921566729
 20
149.2608547201775
 30
0.0
 11
411.617921566729
 21
145.5995971210897
 31
0.0
  0
LINE
  5
21B
330
70
100
AcDbEntity
  8
TOUGU
  6
AI-Linetype-12
 62
     3
420
    65280
370
    25
100
AcDbLine
 10
412.5332359664981
 20
149.2608547201775
 30
0.0
 11
412.5332359664981
 21
145.5995971210897
 31
0.0
  0
LINE
  5
21D
330
70
100
AcDbEntity
  8
TOUGU
  6
AI-Linetype-13
 62
     3
420
    65280
370
    25
100
AcDbLine
 10
412.9908931663903
 20
149.2608547201775
 30
0.0
 11
412.9908931663903
 21
145.5995971210897
 31
0.0
  0
LINE
  5
21F
330
70
100
AcDbEntity
  8
TOUGU
  6
AI-Linetype-14
 62
     3
420
    65280
370
    25
100
AcDbLine
 10
413.4485503662736
 20
149.2608547201775
 30
0.0
 11
413.4485503662736
 21
145.5995971210897
 31
0.0
  0
LINE
  5
221
330
70
100
AcDbEntity
  8
TOUGU
  6
AI-Linetype-15
 62
     3
420
    65280
370
    25
100
AcDbLine
 10
412.0755787666117
 20
149.2608547201775
 30
0.0
 11
412.0755787666117
 21
145.5995971210897
 31
0.0
  0
LINE
  5
223
330
70
100
AcDbEntity
  8
TOUGU
  6
AI-Linetype-16
 62
     3
420
    65280
370
    25
100
AcDbLine
 10
397.8373547701809
 20
150.0026435050895
 30
0.0
 11
397.8373547701809
 21
144.8578083361739
 31
0.0
  0
SPLINE
  5
225
330
70
100
AcDbEntity
  8
TOUGU
  6
AI-Linetype-17
 62
     3
420
    65280
370
    25
100
AcDbSpline
210
0.0
220
0.0
230
1.0
 70
     8
 71
     3
 72
     8
 73
     4
 74
     0
 42
0.0000000001
 43
0.0000000001
 40
0.0
 40
0.0
 40
0.0
 40
0.0
 40
1.0
 40
1.0
 40
1.0
 40
1.0
 10
398.3048320136829
 20
144.2645265901113
 30
0.0
 10
406.6877264159111
 20
142.2477608990241
 30
0.0
 10
415.429399117829
 20
142.2477608990241
 30
0.0
 10
423.8122935200571
 20
144.2645265901113
 30
0.0
  0
LINE
  5
227
330
70
100
AcDbEntity
  8
TOUGU
  6
AI-Linetype-18
 62
     3
420
    65280
370
    25
100
AcDbLine
 10
407.1939019678442
 20
144.7859843212926
 30
0.0
 11
414.9232235658978
 21
144.7859843212926
 31
0.0
  0
LINE
  5
229
330
70
100
AcDbEntity
  8
TOUGU
  6
AI-Linetype-19
 62
     3
420
    65280
370
    25
100
AcDbLine
 10
407.1939019678442
 20
145.1927907211867
 30
0.0
 11
414.9232235658978
 21
145.1927907211867
 31
0.0
  0
LINE
  5
22B
330
70
100
AcDbEntity
  8
TOUGU
  6
AI-Linetype-20
 62
     3
420
    65280
370
    25
100
AcDbLine
 10
409.4313371672796
 20
145.5995971210897
 30
0.0
 11
414.7198203659578
 21
145.5995971210897
 31
0.0
  0
SPLINE
  5
22D
330
70
100
AcDbEntity
  8
TOUGU
  6
AI-Linetype-21
 62
     3
420
    65280
370
    25
100
AcDbSpline
210
0.0
220
0.0
230
1.0
 70
     8
 71
     3
 72
     8
 73
     4
 74
     0
 42
0.0000000001
 43
0.0000000001
 40
0.0
 40
0.0
 40
0.0
 40
0.0
 40
1.0
 40
1.0
 40
1.0
 40
1.0
 10
397.8373547701822
 20
144.8578083361739
 30
0.0
 10
397.8373547701822
 20
144.5757802121448
 30
0.0
 10
398.0306276454236
 20
144.3304949699823
 30
0.0
 10
398.3048320137336
 20
144.26452659011
 30
0.0
  0
SPLINE
  5
22F
330
70
100
AcDbEntity
  8
TOUGU
  6
AI-Linetype-22
 62
     3
420
    65280
370
    25
100
AcDbSpline
210
0.0
220
0.0
230
1.0
 70
     8
 71
     3
 72
     8
 73
     4
 74
     0
 42
0.0000000001
 43
0.0000000001
 40
0.0
 40
0.0
 40
0.0
 40
0.0
 40
1.0
 40
1.0
 40
1.0
 40
1.0
 10
423.8122935200065
 20
144.26452659011
 30
0.0
 10
424.0864978883164
 20
144.3304949699823
 30
0.0
 10
424.2797707635585
 20
144.5757802121448
 30
0.0
 10
424.2797707635585
 20
144.8578083361739
 30
0.0
  0
SPLINE
  5
231
330
70
100
AcDbEntity
  8
TOUGU
  6
AI-Linetype-23
 62
     3
420
    65280
370
    25
100
AcDbSpline
210
0.0
220
0.0
230
1.0
 70
     8
 71
     3
 72
     8
 73
     4
 74
     0
 42
0.0000000001
 43
0.0000000001
 40
0.0
 40
0.0
 40
0.0
 40
0.0
 40
1.0
 40
1.0
 40
1.0
 40
1.0
 10
423.8122935200571
 20
150.5959252511476
 30
0.0
 10
415.4293991178296
 20
152.6126909422355
 30
0.0
 10
406.6877264159111
 20
152.6126909422355
 30
0.0
 10
398.3048320136829
 20
150.5959252511476
 30
0.0
  0
LINE
  5
233
330
70
100
AcDbEntity
  8
TOUGU
  6
AI-Linetype-24
 62
     3
420
    65280
370
    25
100
AcDbLine
 10
407.1939019678442
 20
150.0744675199708
 30
0.0
 11
414.9232235658978
 21
150.0744675199708
 31
0.0
  0
LINE
  5
235
330
70
100
AcDbEntity
  8
TOUGU
  6
AI-Linetype-25
 62
     3
420
    65280
370
    25
100
AcDbLine
 10
407.1939019678442
 20
149.6676611200716
 30
0.0
 11
414.9232235658978
 21
149.6676611200716
 31
0.0
  0
LINE
  5
237
330
70
100
AcDbEntity
  8
TOUGU
  6
AI-Linetype-26
 62
     3
420
    65280
370
    25
100
AcDbLine
 10
409.4313371672796
 20
149.2608547201775
 30
0.0
 11
414.7198203659578
 21
149.2608547201775
 31
0.0
  0
SPLINE
  5
239
330
70
100
AcDbEntity
  8
TOUGU
  6
AI-Linetype-27
 62
     3
420
    65280
370
    25
100
AcDbSpline
210
0.0
220
0.0
230
1.0
 70
     8
 71
     3
 72
     8
 73
     4
 74
     0
 42
0.0000000001
 43
0.0000000001
 40
0.0
 40
0.0
 40
0.0
 40
0.0
 40
1.0
 40
1.0
 40
1.0
 40
1.0
 10
413.1154739683386
 20
151.911760810224
 30
0.0
 10
412.7590082895367
 20
151.8260019163899
 30
0.0
 10
412.5077535517229
 20
151.5071311015779
 30
0.0
 10
412.5077535517229
 20
151.140494540342
 30
0.0
  0
SPLINE
  5
23B
330
70
100
AcDbEntity
  8
TOUGU
  6
AI-Linetype-28
 62
     3
420
    65280
370
    25
100
AcDbSpline
210
0.0
220
0.0
230
1.0
 70
     8
 71
     3
 72
     8
 73
     4
 74
     0
 42
0.0000000001
 43
0.0000000001
 40
0.0
 40
0.0
 40
0.0
 40
0.0
 40
1.0
 40
1.0
 40
1.0
 40
1.0
 10
424.2797707635585
 20
150.0026435050895
 30
0.0
 10
424.2797707635585
 20
150.2846716291186
 30
0.0
 10
424.0864978883164
 20
150.5299568712811
 30
0.0
 10
423.8122935200065
 20
150.5959252511534
 30
0.0
  0
LINE
  5
23E
330
70
100
AcDbEntity
  8
CL
  6
AI-Linetype-29
 62
     9
420
 12632256
370
    25
100
AcDbLine
 10
388.7357116083022
 20
151.377621000391
 30
0.0
 11
386.7099156798881
 21
143.4828308408827
 31
0.0
  0
LINE
  5
240
330
70
100
AcDbEntity
  8
CL
  6
AI-Linetype-30
 62
     9
420
 12632256
370
    25
100
AcDbLine
 10
386.526745198253
 20
151.377621000391
 30
0.0
 11
384.500949269839
 21
143.4828308408827
 31
0.0
  0
LINE
  5
242
330
70
100
AcDbEntity
  8
CL
  6
AI-Linetype-31
 62
     9
420
 12632256
370
    25
100
AcDbLine
 10
439.3052410182652
 20
151.377621000391
 30
0.0
 11
437.2794450898383
 21
143.4828308408827
 31
0.0
  0
LINE
  5
244
330
70
100
AcDbEntity
  8
CL
  6
AI-Linetype-32
 62
     9
420
 12632256
370
    25
100
AcDbLine
 10
437.0962746082128
 20
151.377621000391
 30
0.0
 11
435.0704786797725
 21
143.4828308408827
 31
0.0
  0
ENDSEC
  0
SECTION
  2
OBJECTS
  0
DICTIONARY
  5
C
330
0
100
AcDbDictionary
281
     1
  3
ACAD_COLOR
350
63
  3
ACAD_DETAILVIEWSTYLE
350
6A
  3
ACAD_GROUP
350
D
  3
ACAD_LAYOUT
350
62
  3
ACAD_MATERIAL
350
10
  3
ACAD_MLEADERSTYLE
350
66
  3
ACAD_MLINESTYLE
350
5F
  3
ACAD_PLOTSETTINGS
350
61
  3
ACAD_PLOTSTYLENAME
350
E
  3
ACAD_SCALELIST
350
42
  3
ACAD_SECTIONVIEWSTYLE
350
68
  3
ACAD_TABLESTYLE
350
64
  3
ACAD_VISUALSTYLE
350
29
  3
ACDB_RECOMPOSE_DATA
350
24E
  3
AcDbVariableDictionary
350
246
  0
DICTIONARY
  5
63
102
{ACAD_REACTORS
330
C
102
}
330
C
100
AcDbDictionary
281
     1
  0
DICTIONARY
  5
6A
102
{ACAD_REACTORS
330
C
102
}
330
C
100
AcDbDictionary
281
     1
  3
Imperial24
350
6B
  0
DICTIONARY
  5
D
102
{ACAD_REACTORS
330
C
102
}
330
C
100
AcDbDictionary
281
     1
  0
DICTIONARY
  5
62
102
{ACAD_REACTORS
330
C
102
}
330
C
100
AcDbDictionary
281
     1
  3
Layout1
350
6F
  3
Layout2
350
77
  3
Model
350
73
  0
DICTIONARY
  5
10
102
{ACAD_REACTORS
330
C
102
}
330
C
100
AcDbDictionary
281
     1
  3
ByBlock
350
19
  3
ByLayer
350
11
  3
Global
350
21
  0
DICTIONARY
  5
66
102
{ACAD_REACTORS
330
C
102
}
330
C
100
AcDbDictionary
281
     1
  3
Standard
350
67
  0
DICTIONARY
  5
5F
102
{ACAD_REACTORS
330
C
102
}
330
C
100
AcDbDictionary
281
     1
  3
Standard
350
60
  0
DICTIONARY
  5
61
102
{ACAD_REACTORS
330
C
102
}
330
C
100
AcDbDictionary
281
     1
  0
ACDBDICTIONARYWDFLT
  5
E
102
{ACAD_REACTORS
330
C
102
}
330
C
100
AcDbDictionary
281
     1
  3
Normal
350
F
100
AcDbDictionaryWithDefault
340
F
  0
DICTIONARY
  5
42
102
{ACAD_REACTORS
330
C
102
}
330
C
100
AcDbDictionary
281
     1
  3
A0
350
43
  3
A1
350
44
  3
A2
350
45
  3
A3
350
46
  3
A4
350
47
  3
A5
350
48
  3
A6
350
49
  3
A7
350
4A
  3
A8
350
4B
  3
A9
350
4C
  3
B0
350
4D
  3
B1
350
4E
  3
B2
350
4F
  3
B3
350
50
  3
B4
350
51
  3
B5
350
52
  3
B6
350
53
  0
DICTIONARY
  5
68
102
{ACAD_REACTORS
330
C
102
}
330
C
100
AcDbDictionary
281
     1
  3
Imperial24
350
69
  0
DICTIONARY
  5
64
102
{ACAD_REACTORS
330
C
102
}
330
C
100
AcDbDictionary
281
     1
  3
Standard
350
65
  0
DICTIONARY
  5
29
102
{ACAD_REACTORS
330
C
102
}
330
C
100
AcDbDictionary
281
     1
  3
2dWireframe
350
2F
  3
Basic
350
2E
  3
Brighten
350
35
  3
ColorChange
350
39
  3
Conceptual
350
32
  3
Dim
350
34
  3
EdgeColorOff
350
41
  3
Facepattern
350
38
  3
Flat
350
2A
  3
FlatWithEdges
350
2B
  3
Gouraud
350
2C
  3
GouraudWithEdges
350
2D
  3
Hidden
350
31
  3
JitterOff
350
3F
  3
Linepattern
350
37
  3
OverhangOff
350
40
  3
Realistic
350
33
  3
Shaded
350
3E
  3
Shaded with edges
350
3D
  3
Shades of Gray
350
3A
  3
Sketchy
350
3B
  3
Thicken
350
36
  3
Wireframe
350
30
  3
X-Ray
350
3C
  0
XRECORD
  5
24E
102
{ACAD_REACTORS
330
C
102
}
330
C
100
AcDbXrecord
280
     1
 90
        1
330
65
  0
DICTIONARY
  5
246
102
{ACAD_REACTORS
330
C
102
}
330
C
100
AcDbDictionary
281
     1
  3
CANNOSCALE
350
24B
  3
CMLEADERSTYLE
350
248
  3
CTABLESTYLE
350
247
  3
CVIEWDETAILSTYLE
350
249
  3
CVIEWSECTIONSTYLE
350
24A
  0
ACDBDETAILVIEWSTYLE
  5
6B
102
{ACAD_REACTORS
330
6A
102
}
330
6A
100
AcDbModelDocViewStyle
 70
     0
  3
Imperial24
290
     1
300
Imperial24
 90
        0
100
AcDbDetailViewStyle
 70
     0
 71
     0
 90
        3
 71
     1
340
55
 62
   256
 40
0.24
340
0
 62
   256
 40
0.24
300

 40
0.36
280
     3
 71
     2
340
5D
 90
       25
 62
   256
 71
     3
340
55
 62
   256
 40
0.24
 90
        1
 40
0.75
 90
        1
300
%<\AcVar ViewType \f "%tc1">% %<\AcVar ViewDetailId>%\PSCALE %<\AcVar ViewScale \f "%sn">%
 71
     4
340
5D
 90
       25
 62
   256
340
5D
 90
       25
 62
   256
280
     0
  0
LAYOUT
  5
6F
102
{ACAD_REACTORS
330
62
102
}
330
62
100
AcDbPlotSettings
  1

  2

  4

  6

 40
0.0
 41
0.0
 42
0.0
 43
0.0
 44
0.0
 45
0.0
 46
0.0
 47
0.0
 48
0.0
 49
0.0
140
0.0
141
0.0
142
1.0
143
1.0
 70
   688
 72
     0
 73
     0
 74
     5
  7

 75
    16
147
1.0
 76
     0
 77
     2
 78
   300
148
0.0
149
0.0
100
AcDbLayout
  1
Layout1
 70
     1
 71
     1
 10
0.0
 20
0.0
 11
12.0
 21
9.0
 12
0.0
 22
0.0
 32
0.0
 14
0.0
 24
0.0
 34
0.0
 15
0.0
 25
0.0
 35
0.0
146
0.0
 13
0.0
 23
0.0
 33
0.0
 16
1.0
 26
0.0
 36
0.0
 17
0.0
 27
1.0
 37
0.0
 76
     0
330
6C
  0
LAYOUT
  5
77
102
{ACAD_REACTORS
330
62
102
}
330
62
100
AcDbPlotSettings
  1

  2

  4

  6

 40
0.0
 41
0.0
 42
0.0
 43
0.0
 44
0.0
 45
0.0
 46
0.0
 47
0.0
 48
0.0
 49
0.0
140
0.0
141
0.0
142
1.0
143
1.0
 70
   688
 72
     0
 73
     0
 74
     5
  7

 75
    16
147
1.0
 76
     0
 77
     2
 78
   300
148
0.0
149
0.0
100
AcDbLayout
  1
Layout2
 70
     1
 71
     2
 10
0.0
 20
0.0
 11
12.0
 21
9.0
 12
0.0
 22
0.0
 32
0.0
 14
0.0
 24
0.0
 34
0.0
 15
0.0
 25
0.0
 35
0.0
146
0.0
 13
0.0
 23
0.0
 33
0.0
 16
1.0
 26
0.0
 36
0.0
 17
0.0
 27
1.0
 37
0.0
 76
     0
330
74
  0
LAYOUT
  5
73
102
{ACAD_REACTORS
330
62
102
}
330
62
100
AcDbPlotSettings
  1

  2

  4

  6

 40
0.0
 41
0.0
 42
0.0
 43
0.0
 44
0.0
 45
0.0
 46
0.0
 47
0.0
 48
0.0
 49
0.0
140
0.0
141
0.0
142
1.0
143
1.0
 70
  1712
 72
     0
 73
     0
 74
     0
  7

 75
     0
147
1.0
 76
     0
 77
     2
 78
   300
148
0.0
149
0.0
100
AcDbLayout
  1
Model
 70
     1
 71
     0
 10
0.0
 20
0.0
 11
12.0
 21
9.0
 12
0.0
 22
0.0
 32
0.0
 14
0.0
 24
0.0
 34
0.0
 15
0.0
 25
0.0
 35
0.0
146
0.0
 13
0.0
 23
0.0
 33
0.0
 16
1.0
 26
0.0
 36
0.0
 17
0.0
 27
1.0
 37
0.0
 76
     0
330
70
  0
MATERIAL
  5
19
102
{ACAD_XDICTIONARY
360
1A
102
}
102
{ACAD_REACTORS
330
10
102
}
330
10
100
AcDbMaterial
  1
ByBlock
 72
     0
 43
0.0208333333333333
 43
0.0
 43
0.0
 43
0.0
 43
0.0
 43
0.0208333333333333
 43
0.0
 43
0.0
 43
0.0
 43
0.0
 43
1.0
 43
0.0
 43
0.0
 43
0.0
 43
0.0
 43
1.0
 77
     0
 47
0.0208333333333333
 47
0.0
 47
0.0
 47
0.0
 47
0.0
 47
0.0208333333333333
 47
0.0
 47
0.0
 47
0.0
 47
0.0
 47
1.0
 47
0.0
 47
0.0
 47
0.0
 47
0.0
 47
1.0
171
     0
 49
0.0208333333333333
 49
0.0
 49
0.0
 49
0.0
 49
0.0
 49
0.0208333333333333
 49
0.0
 49
0.0
 49
0.0
 49
0.0
 49
1.0
 49
0.0
 49
0.0
 49
0.0
 49
0.0
 49
1.0
175
     0
142
0.0208333333333333
142
0.0
142
0.0
142
0.0
142
0.0
142
0.0208333333333333
142
0.0
142
0.0
142
0.0
142
0.0
142
1.0
142
0.0
142
0.0
142
0.0
142
0.0
142
1.0
179
     0
144
0.0208333333333333
144
0.0
144
0.0
144
0.0
144
0.0
144
0.0208333333333333
144
0.0
144
0.0
144
0.0
144
0.0
144
1.0
144
0.0
144
0.0
144
0.0
144
0.0
144
1.0
147
0.0208333333333333
147
0.0
147
0.0
147
0.0
147
0.0
147
0.0208333333333333
147
0.0
147
0.0
147
0.0
147
0.0
147
1.0
147
0.0
147
0.0
147
0.0
147
0.0
147
1.0
  0
MATERIAL
  5
11
102
{ACAD_XDICTIONARY
360
12
102
}
102
{ACAD_REACTORS
330
10
102
}
330
10
100
AcDbMaterial
  1
ByLayer
 72
     0
 43
0.0208333333333333
 43
0.0
 43
0.0
 43
0.0
 43
0.0
 43
0.0208333333333333
 43
0.0
 43
0.0
 43
0.0
 43
0.0
 43
1.0
 43
0.0
 43
0.0
 43
0.0
 43
0.0
 43
1.0
 77
     0
 47
0.0208333333333333
 47
0.0
 47
0.0
 47
0.0
 47
0.0
 47
0.0208333333333333
 47
0.0
 47
0.0
 47
0.0
 47
0.0
 47
1.0
 47
0.0
 47
0.0
 47
0.0
 47
0.0
 47
1.0
171
     0
 49
0.0208333333333333
 49
0.0
 49
0.0
 49
0.0
 49
0.0
 49
0.0208333333333333
 49
0.0
 49
0.0
 49
0.0
 49
0.0
 49
1.0
 49
0.0
 49
0.0
 49
0.0
 49
0.0
 49
1.0
175
     0
142
0.0208333333333333
142
0.0
142
0.0
142
0.0
142
0.0
142
0.0208333333333333
142
0.0
142
0.0
142
0.0
142
0.0
142
1.0
142
0.0
142
0.0
142
0.0
142
0.0
142
1.0
179
     0
144
0.0208333333333333
144
0.0
144
0.0
144
0.0
144
0.0
144
0.0208333333333333
144
0.0
144
0.0
144
0.0
144
0.0
144
1.0
144
0.0
144
0.0
144
0.0
144
0.0
144
1.0
147
0.0208333333333333
147
0.0
147
0.0
147
0.0
147
0.0
147
0.0208333333333333
147
0.0
147
0.0
147
0.0
147
0.0
147
1.0
147
0.0
147
0.0
147
0.0
147
0.0
147
1.0
  0
MATERIAL
  5
21
102
{ACAD_XDICTIONARY
360
22
102
}
102
{ACAD_REACTORS
330
10
102
}
330
10
100
AcDbMaterial
  1
Global
 72
     0
 43
0.0208333333333333
 43
0.0
 43
0.0
 43
0.0
 43
0.0
 43
0.0208333333333333
 43
0.0
 43
0.0
 43
0.0
 43
0.0
 43
1.0
 43
0.0
 43
0.0
 43
0.0
 43
0.0
 43
1.0
 77
     0
 47
0.0208333333333333
 47
0.0
 47
0.0
 47
0.0
 47
0.0
 47
0.0208333333333333
 47
0.0
 47
0.0
 47
0.0
 47
0.0
 47
1.0
 47
0.0
 47
0.0
 47
0.0
 47
0.0
 47
1.0
171
     0
 49
0.0208333333333333
 49
0.0
 49
0.0
 49
0.0
 49
0.0
 49
0.0208333333333333
 49
0.0
 49
0.0
 49
0.0
 49
0.0
 49
1.0
 49
0.0
 49
0.0
 49
0.0
 49
0.0
 49
1.0
175
     0
142
0.0208333333333333
142
0.0
142
0.0
142
0.0
142
0.0
142
0.0208333333333333
142
0.0
142
0.0
142
0.0
142
0.0
142
1.0
142
0.0
142
0.0
142
0.0
142
0.0
142
1.0
179
     0
144
0.0208333333333333
144
0.0
144
0.0
144
0.0
144
0.0
144
0.0208333333333333
144
0.0
144
0.0
144
0.0
144
0.0
144
1.0
144
0.0
144
0.0
144
0.0
144
0.0
144
1.0
147
0.0208333333333333
147
0.0
147
0.0
147
0.0
147
0.0
147
0.0208333333333333
147
0.0
147
0.0
147
0.0
147
0.0
147
1.0
147
0.0
147
0.0
147
0.0
147
0.0
147
1.0
  0
MLEADERSTYLE
  5
67
102
{ACAD_REACTORS
330
66
102
}
330
66
100
AcDbMLeaderStyle
179
     2
170
     2
171
     1
172
     0
 90
        2
 40
0.0
 41
0.0
173
     1
 91
-1056964608
340
5B
 92
       -2
290
     1
 42
0.09
291
     1
 43
0.36
  3
Standard
 44
0.18
300

342
55
174
     1
178
     6
175
     1
176
     0
 93
-1056964608
 45
0.18
292
     0
297
     0
 46
0.18
 94
-1056964608
 47
1.0
 49
1.0
140
1.0
293
     1
141
0.0
294
     1
177
     0
142
1.0
295
     1
296
     0
143
0.125
271
     0
272
     9
273
     9
298
     1
  0
MLINESTYLE
  5
60
102
{ACAD_REACTORS
330
5F
102
}
330
5F
100
AcDbMlineStyle
  2
STANDARD
 70
     0
  3

 62
   256
 51
90.0
 52
90.0
 71
     2
 49
0.5
 62
   256
  6
BYLAYER
 49
-0.5
 62
   256
  6
BYLAYER
  0
ACDBPLACEHOLDER
  5
F
102
{ACAD_REACTORS
330
E
102
}
330
E
  0
SCALE
  5
43
102
{ACAD_REACTORS
330
42
102
}
330
42
100
AcDbScale
 70
     0
300
1:1
140
1.0
141
1.0
290
     1
  0
SCALE
  5
44
102
{ACAD_REACTORS
330
42
102
}
330
42
100
AcDbScale
 70
     0
300
1/128" = 1'-0"
140
0.0078125
141
12.0
290
     0
  0
SCALE
  5
45
102
{ACAD_REACTORS
330
42
102
}
330
42
100
AcDbScale
 70
     0
300
1/64" = 1'-0"
140
0.015625
141
12.0
290
     0
  0
SCALE
  5
46
102
{ACAD_REACTORS
330
42
102
}
330
42
100
AcDbScale
 70
     0
300
1/32" = 1'-0"
140
0.03125
141
12.0
290
     0
  0
SCALE
  5
47
102
{ACAD_REACTORS
330
42
102
}
330
42
100
AcDbScale
 70
     0
300
1/16" = 1'-0"
140
0.0625
141
12.0
290
     0
  0
SCALE
  5
48
102
{ACAD_REACTORS
330
42
102
}
330
42
100
AcDbScale
 70
     0
300
3/32" = 1'-0"
140
0.09375
141
12.0
290
     0
  0
SCALE
  5
49
102
{ACAD_REACTORS
330
42
102
}
330
42
100
AcDbScale
 70
     0
300
1/8" = 1'-0"
140
0.125
141
12.0
290
     0
  0
SCALE
  5
4A
102
{ACAD_REACTORS
330
42
102
}
330
42
100
AcDbScale
 70
     0
300
3/16" = 1'-0"
140
0.1875
141
12.0
290
     0
  0
SCALE
  5
4B
102
{ACAD_REACTORS
330
42
102
}
330
42
100
AcDbScale
 70
     0
300
1/4" = 1'-0"
140
0.25
141
12.0
290
     0
  0
SCALE
  5
4C
102
{ACAD_REACTORS
330
42
102
}
330
42
100
AcDbScale
 70
     0
300
3/8" = 1'-0"
140
0.375
141
12.0
290
     0
  0
SCALE
  5
4D
102
{ACAD_REACTORS
330
42
102
}
330
42
100
AcDbScale
 70
     0
300
1/2" = 1'-0"
140
0.5
141
12.0
290
     0
  0
SCALE
  5
4E
102
{ACAD_REACTORS
330
42
102
}
330
42
100
AcDbScale
 70
     0
300
3/4" = 1'-0"
140
0.75
141
12.0
290
     0
  0
SCALE
  5
4F
102
{ACAD_REACTORS
330
42
102
}
330
42
100
AcDbScale
 70
     0
300
1" = 1'-0"
140
1.0
141
12.0
290
     0
  0
SCALE
  5
50
102
{ACAD_REACTORS
330
42
102
}
330
42
100
AcDbScale
 70
     0
300
1-1/2" = 1'-0"
140
1.5
141
12.0
290
     0
  0
SCALE
  5
51
102
{ACAD_REACTORS
330
42
102
}
330
42
100
AcDbScale
 70
     0
300
3" = 1'-0"
140
3.0
141
12.0
290
     0
  0
SCALE
  5
52
102
{ACAD_REACTORS
330
42
102
}
330
42
100
AcDbScale
 70
     0
300
6" = 1'-0"
140
6.0
141
12.0
290
     0
  0
SCALE
  5
53
102
{ACAD_REACTORS
330
42
102
}
330
42
100
AcDbScale
 70
     0
300
1'-0" = 1'-0"
140
12.0
141
12.0
290
     0
  0
ACDBSECTIONVIEWSTYLE
  5
69
102
{ACAD_REACTORS
330
68
102
}
330
68
100
AcDbModelDocViewStyle
 70
     0
  3
Imperial24
290
     1
300
Imperial24
 90
        0
100
AcDbSectionViewStyle
 70
     0
 71
     0
 90
       78
 71
     1
340
55
 62
   256
 40
0.24
340
0
340
0
 62
   256
 40
0.24
300
I, O, Q, S, X, Z
 40
0.48
 90
        3
 40
0.18
 90
        1
 71
     2
340
5D
 90
       25
 62
   256
340
5D
 90
       50
 62
   256
 40
0.24
 40
0.0
 40
0.24
 71
     3
340
55
 62
   256
 40
0.24
 90
        1
 40
0.75
 90
        1
300
%<\AcVar ViewType \f "%tc1">% %<\AcVar ViewSectionStartId>%-%<\AcVar ViewSectionEndId>%\PSCALE %<\AcVar ViewScale \f "%sn">%
 71
     4
 62
   256
 62
   257
300
ANSI31
 40
1.0
 90
        0
290
     0
290
     0
 90
        6
 40
0.0
 40
1.570796326794896
 40
0.2617993877991494
 40
1.308996938995747
 40
-0.2617993877991494
 40
1.832595714594046
  0
TABLESTYLE
  5
65
102
{ACAD_XDICTIONARY
360
24C
102
}
102
{ACAD_REACTORS
330
64
102
}
330
64
100
AcDbTableStyle
280
     0
  3
Standard
 70
     0
 71
     0
 40
0.06
 41
0.06
280
     0
281
     0
  7
Standard
140
0.18
170
     2
 62
     0
 63
     7
283
     0
 90
      512
 91
        0
  1

274
    -2
284
     1
 64
     0
275
    -2
285
     1
 65
     0
276
    -2
286
     1
 66
     0
277
    -2
287
     1
 67
     0
278
    -2
288
     1
 68
     0
279
    -2
289
     1
 69
     0
  7
Standard
140
0.25
170
     5
 62
     0
 63
     7
283
     0
 90
      512
 91
        0
  1

274
    -2
284
     1
 64
     0
275
    -2
285
     1
 65
     0
276
    -2
286
     1
 66
     0
277
    -2
287
     1
 67
     0
278
    -2
288
     1
 68
     0
279
    -2
289
     1
 69
     0
  7
Standard
140
0.18
170
     5
 62
     0
 63
     7
283
     0
 90
      512
 91
        0
  1

274
    -2
284
     1
 64
     0
275
    -2
285
     1
 65
     0
276
    -2
286
     1
 66
     0
277
    -2
287
     1
 67
     0
278
    -2
288
     1
 68
     0
279
    -2
289
     1
 69
     0
  0
VISUALSTYLE
  5
2F
102
{ACAD_REACTORS
330
29
102
}
330
29
100
AcDbVisualStyle
  2
2dWireframe
 70
     4
177
     3
291
     0
 70
    58
 90
        0
176
     1
 90
        2
176
     1
 90
        0
176
     1
 90
        0
176
     1
 40
0.6
176
     1
 40
30.0
176
     1
 62
     7
420
 16777215
176
     1
 90
        1
176
     1
 90
        4
176
     1
 62
     7
176
     1
 62
   257
176
     1
 90
        1
176
     1
 90
        1
176
     1
 40
1.0
176
     1
 90
        0
176
     1
 62
   257
176
     1
 40
1.0
176
     1
 90
        1
176
     1
 90
        6
176
     1
 90
        2
176
     1
 62
     7
176
     1
 90
        5
176
     1
 90
        0
176
     1
 90
        0
176
     1
290
     0
176
     1
 90
        1
176
     1
 40
0.0
176
     1
 90
        0
176
     1
290
     1
176
     1
290
     1
176
     1
290
     0
176
     1
290
     0
176
     1
290
     0
176
     1
290
     0
176
     1
290
     0
176
     1
290
     0
176
     1
290
     0
176
     1
 90
       50
176
     1
 40
0.0
176
     1
 40
1.0
176
     1
 90
        0
176
     1
 62
    18
420
        0
176
     1
 90
       50
176
     1
 90
        3
176
     1
 62
     5
420
      255
176
     1
290
     0
176
     1
 90
       50
176
     1
 90
       50
176
     1
 90
       50
176
     1
290
     0
176
     1
 90
       50
176
     1
 62
   256
176
     0
 40
1.0
176
     0
 90
        2
176
     1
  1
strokes_ogs.tif
176
     1
290
     0
176
     1
 40
1.0
176
     1
 40
1.0
176
     1
  0
VISUALSTYLE
  5
2E
102
{ACAD_REACTORS
330
29
102
}
330
29
100
AcDbVisualStyle
  2
Basic
 70
     7
177
     3
291
     1
 70
    58
 90
        1
176
     1
 90
        0
176
     1
 90
        1
176
     1
 90
        0
176
     1
 40
0.6
176
     1
 40
30.0
176
     1
 62
     7
420
 16777215
176
     1
 90
        0
176
     1
 90
        4
176
     1
 62
     7
176
     1
 62
   257
176
     1
 90
        1
176
     1
 90
        1
176
     1
 40
1.0
176
     1
 90
        8
176
     1
 62
     7
176
     1
 40
1.0
176
     1
 90
        1
176
     1
 90
        6
176
     1
 90
        2
176
     1
 62
     7
176
     1
 90
        5
176
     1
 90
        0
176
     1
 90
        0
176
     1
290
     0
176
     1
 90
        1
176
     1
 40
0.0
176
     1
 90
        0
176
     1
290
     0
176
     1
290
     1
176
     1
290
     1
176
     1
290
     0
176
     1
290
     0
176
     1
290
     0
176
     1
290
     0
176
     1
290
     0
176
     1
290
     0
176
     1
 90
       50
176
     1
 40
0.0
176
     1
 40
1.0
176
     1
 90
        0
176
     1
 62
    18
420
        0
176
     1
 90
       50
176
     1
 90
        3
176
     1
 62
     5
420
      255
176
     1
290
     0
176
     1
 90
       50
176
     1
 90
       50
176
     1
 90
       50
176
     1
290
     0
176
     1
 90
       50
176
     1
 62
   256
176
     0
 40
1.0
176
     0
 90
        2
176
     1
  1
strokes_ogs.tif
176
     1
290
     0
176
     1
 40
1.0
176
     1
 40
1.0
176
     1
  0
VISUALSTYLE
  5
35
102
{ACAD_REACTORS
330
29
102
}
330
29
100
AcDbVisualStyle
  2
Brighten
 70
    12
177
     3
291
     1
 70
    58
 90
        2
176
     1
 90
        2
176
     1
 90
        0
176
     1
 90
        0
176
     1
 40
0.6
176
     1
 40
30.0
176
     1
 62
     7
420
 16777215
176
     1
 90
        1
176
     1
 90
        4
176
     1
 62
     7
176
     1
 62
   257
176
     1
 90
        1
176
     1
 90
        1
176
     1
 40
1.0
176
     1
 90
        8
176
     1
 62
     7
176
     1
 40
1.0
176
     1
 90
        1
176
     1
 90
        6
176
     1
 90
        2
176
     1
 62
     7
176
     1
 90
        5
176
     1
 90
        0
176
     1
 90
        0
176
     1
290
     0
176
     1
 90
        1
176
     1
 40
50.0
176
     1
 90
        0
176
     1
290
     0
176
     1
290
     1
176
     1
290
     1
176
     1
290
     0
176
     1
290
     0
176
     1
290
     0
176
     1
290
     0
176
     1
290
     0
176
     1
290
     0
176
     1
 90
       50
176
     1
 40
0.0
176
     1
 40
1.0
176
     1
 90
        0
176
     1
 62
    18
420
        0
176
     1
 90
       50
176
     1
 90
        3
176
     1
 62
     5
420
      255
176
     1
290
     0
176
     1
 90
       50
176
     1
 90
       50
176
     1
 90
       50
176
     1
290
     0
176
     1
 90
       50
176
     1
 62
   256
176
     0
 40
1.0
176
     0
 90
        2
176
     1
  1
strokes_ogs.tif
176
     1
290
     0
176
     1
 40
1.0
176
     1
 40
1.0
176
     1
  0
VISUALSTYLE
  5
39
102
{ACAD_REACTORS
330
29
102
}
330
29
100
AcDbVisualStyle
  2
ColorChange
 70
    16
177
     3
291
     1
 70
    58
 90
        2
176
     1
 90
        2
176
     1
 90
        3
176
     1
 90
        0
176
     1
 40
0.6
176
     1
 40
30.0
176
     1
 62
     8
420
  8421504
176
     1
 90
        1
176
     1
 90
        4
176
     1
 62
     7
176
     1
 62
   257
176
     1
 90
        1
176
     1
 90
        1
176
     1
 40
1.0
176
     1
 90
        8
176
     1
 62
     8
420
  8421504
176
     1
 40
1.0
176
     1
 90
        1
176
     1
 90
        6
176
     1
 90
        2
176
     1
 62
     7
176
     1
 90
        5
176
     1
 90
        0
176
     1
 90
        0
176
     1
290
     0
176
     1
 90
        1
176
     1
 40
0.0
176
     1
 90
        0
176
     1
290
     0
176
     1
290
     1
176
     1
290
     1
176
     1
290
     0
176
     1
290
     0
176
     1
290
     0
176
     1
290
     0
176
     1
290
     0
176
     1
290
     0
176
     1
 90
       50
176
     1
 40
0.0
176
     1
 40
1.0
176
     1
 90
        0
176
     1
 62
    18
420
        0
176
     1
 90
       50
176
     1
 90
        3
176
     1
 62
     5
420
      255
176
     1
290
     0
176
     1
 90
       50
176
     1
 90
       50
176
     1
 90
       50
176
     1
290
     0
176
     1
 90
       50
176
     1
 62
   256
176
     0
 40
1.0
176
     0
 90
        2
176
     1
  1
strokes_ogs.tif
176
     1
290
     0
176
     1
 40
1.0
176
     1
 40
1.0
176
     1
  0
VISUALSTYLE
  5
32
102
{ACAD_REACTORS
330
29
102
}
330
29
100
AcDbVisualStyle
  2
Conceptual
 70
     9
177
     3
291
     0
 70
    58
 90
        3
176
     1
 90
        2
176
     1
 90
        0
176
     1
 90
        0
176
     1
 40
0.6
176
     1
 40
30.0
176
     1
 62
     7
420
 16777215
176
     1
 90
        2
176
     1
 90
        2
176
     1
 62
     7
176
     1
 62
   257
176
     1
 90
        1
176
     1
 90
        1
176
     1
 40
179.0
176
     1
 90
        8
176
     1
 62
     7
176
     1
 40
1.0
176
     1
 90
        1
176
     1
 90
        6
176
     1
 90
        2
176
     1
 62
     7
176
     1
 90
        3
176
     1
 90
        0
176
     1
 90
        0
176
     1
290
     0
176
     1
 90
        1
176
     1
 40
0.0
176
     1
 90
        0
176
     1
290
     0
176
     1
290
     1
176
     1
290
     1
176
     1
290
     0
176
     1
290
     0
176
     1
290
     0
176
     1
290
     0
176
     1
290
     0
176
     1
290
     0
176
     1
 90
       50
176
     1
 40
0.0
176
     1
 40
1.0
176
     1
 90
        0
176
     1
 62
    18
420
        0
176
     1
 90
       50
176
     1
 90
        3
176
     1
 62
     5
420
      255
176
     1
290
     0
176
     1
 90
       50
176
     1
 90
       50
176
     1
 90
       50
176
     1
290
     0
176
     1
 90
       50
176
     1
 62
   256
176
     0
 40
1.0
176
     0
 90
        2
176
     1
  1
strokes_ogs.tif
176
     1
290
     0
176
     1
 40
1.0
176
     1
 40
1.0
176
     1
  0
VISUALSTYLE
  5
34
102
{ACAD_REACTORS
330
29
102
}
330
29
100
AcDbVisualStyle
  2
Dim
 70
    11
177
     3
291
     1
 70
    58
 90
        2
176
     1
 90
        2
176
     1
 90
        0
176
     1
 90
        0
176
     1
 40
0.6
176
     1
 40
30.0
176
     1
 62
     7
420
 16777215
176
     1
 90
        1
176
     1
 90
        4
176
     1
 62
     7
176
     1
 62
   257
176
     1
 90
        1
176
     1
 90
        1
176
     1
 40
1.0
176
     1
 90
        8
176
     1
 62
     7
176
     1
 40
1.0
176
     1
 90
        1
176
     1
 90
        6
176
     1
 90
        2
176
     1
 62
     7
176
     1
 90
        5
176
     1
 90
        0
176
     1
 90
        0
176
     1
290
     0
176
     1
 90
        1
176
     1
 40
-50.0
176
     1
 90
        0
176
     1
290
     0
176
     1
290
     1
176
     1
290
     1
176
     1
290
     0
176
     1
290
     0
176
     1
290
     0
176
     1
290
     0
176
     1
290
     0
176
     1
290
     0
176
     1
 90
       50
176
     1
 40
0.0
176
     1
 40
1.0
176
     1
 90
        0
176
     1
 62
    18
420
        0
176
     1
 90
       50
176
     1
 90
        3
176
     1
 62
     5
420
      255
176
     1
290
     0
176
     1
 90
       50
176
     1
 90
       50
176
     1
 90
       50
176
     1
290
     0
176
     1
 90
       50
176
     1
 62
   256
176
     0
 40
1.0
176
     0
 90
        2
176
     1
  1
strokes_ogs.tif
176
     1
290
     0
176
     1
 40
1.0
176
     1
 40
1.0
176
     1
  0
VISUALSTYLE
  5
41
102
{ACAD_REACTORS
330
29
102
}
330
29
100
AcDbVisualStyle
  2
EdgeColorOff
 70
    22
177
     3
291
     1
 70
    58
 90
        2
176
     0
 90
        2
176
     0
 90
        0
176
     0
 90
        0
176
     0
 40
0.6
176
     0
 40
30.0
176
     0
 62
     7
420
 16777215
176
     0
 90
        1
176
     0
 90
        4
176
     0
 62
     7
176
     0
 62
   257
176
     0
 90
        1
176
     0
 90
        1
176
     0
 40
1.0
176
     0
 90
        8
176
     2
 62
     7
176
     0
 40
1.0
176
     0
 90
        1
176
     0
 90
        6
176
     0
 90
        2
176
     0
 62
     7
176
     0
 90
        5
176
     0
 90
        0
176
     0
 90
        0
176
     0
290
     0
176
     0
 90
        1
176
     0
 40
0.0
176
     0
 90
        0
176
     0
290
     0
176
     0
290
     1
176
     0
290
     1
176
     0
290
     0
176
     0
290
     0
176
     0
290
     0
176
     0
290
     0
176
     0
290
     0
176
     0
290
     0
176
     0
 90
       50
176
     0
 40
0.0
176
     0
 40
1.0
176
     0
 90
        0
176
     0
 62
    18
420
        0
176
     0
 90
       50
176
     0
 90
        3
176
     0
 62
     5
420
      255
176
     0
290
     0
176
     0
 90
       50
176
     0
 90
       50
176
     0
 90
       50
176
     0
290
     0
176
     0
 90
       50
176
     0
 62
   256
176
     0
 40
1.0
176
     0
 90
        2
176
     0
  1
strokes_ogs.tif
176
     0
290
     0
176
     0
 40
1.0
176
     0
 40
1.0
176
     0
  0
VISUALSTYLE
  5
38
102
{ACAD_REACTORS
330
29
102
}
330
29
100
AcDbVisualStyle
  2
Facepattern
 70
    15
177
     3
291
     1
 70
    58
 90
        2
176
     1
 90
        2
176
     1
 90
        0
176
     1
 90
        0
176
     1
 40
0.6
176
     1
 40
30.0
176
     1
 62
     7
420
 16777215
176
     1
 90
        1
176
     1
 90
        4
176
     1
 62
     7
176
     1
 62
   257
176
     1
 90
        1
176
     1
 90
        1
176
     1
 40
1.0
176
     1
 90
        8
176
     1
 62
     7
176
     1
 40
1.0
176
     1
 90
        1
176
     1
 90
        6
176
     1
 90
        2
176
     1
 62
     7
176
     1
 90
        5
176
     1
 90
        0
176
     1
 90
        0
176
     1
290
     0
176
     1
 90
        1
176
     1
 40
0.0
176
     1
 90
        0
176
     1
290
     0
176
     1
290
     1
176
     1
290
     1
176
     1
290
     0
176
     1
290
     0
176
     1
290
     0
176
     1
290
     0
176
     1
290
     0
176
     1
290
     0
176
     1
 90
       50
176
     1
 40
0.0
176
     1
 40
1.0
176
     1
 90
        0
176
     1
 62
    18
420
        0
176
     1
 90
       50
176
     1
 90
        3
176
     1
 62
     5
420
      255
176
     1
290
     0
176
     1
 90
       50
176
     1
 90
       50
176
     1
 90
       50
176
     1
290
     0
176
     1
 90
       50
176
     1
 62
   256
176
     0
 40
1.0
176
     0
 90
        2
176
     1
  1
strokes_ogs.tif
176
     1
290
     0
176
     1
 40
1.0
176
     1
 40
1.0
176
     1
  0
VISUALSTYLE
  5
2A
102
{ACAD_REACTORS
330
29
102
}
330
29
100
AcDbVisualStyle
  2
Flat
 70
     0
177
     3
291
     1
 70
    58
 90
        2
176
     1
 90
        1
176
     1
 90
        1
176
     1
 90
        2
176
     1
 40
0.6
176
     1
 40
30.0
176
     1
 62
     7
420
 16777215
176
     1
 90
        0
176
     1
 90
        0
176
     1
 62
     7
176
     1
 62
   257
176
     1
 90
        1
176
     1
 90
        1
176
     1
 40
1.0
176
     1
 90
        8
176
     1
 62
     7
176
     1
 40
1.0
176
     1
 90
        1
176
     1
 90
        6
176
     1
 90
        2
176
     1
 62
     7
176
     1
 90
        5
176
     1
 90
        0
176
     1
 90
        0
176
     1
290
     0
176
     1
 90
       13
176
     1
 40
0.0
176
     1
 90
        0
176
     1
290
     0
176
     1
290
     1
176
     1
290
     1
176
     1
290
     0
176
     1
290
     0
176
     1
290
     0
176
     1
290
     0
176
     1
290
     0
176
     1
290
     0
176
     1
 90
       50
176
     1
 40
0.0
176
     1
 40
1.0
176
     1
 90
        0
176
     1
 62
    18
420
        0
176
     1
 90
       50
176
     1
 90
        3
176
     1
 62
     5
420
      255
176
     1
290
     0
176
     1
 90
       50
176
     1
 90
       50
176
     1
 90
       50
176
     1
290
     0
176
     1
 90
       50
176
     1
 62
   256
176
     0
 40
1.0
176
     0
 90
        2
176
     1
  1
strokes_ogs.tif
176
     1
290
     0
176
     1
 40
1.0
176
     1
 40
1.0
176
     1
  0
VISUALSTYLE
  5
2B
102
{ACAD_REACTORS
330
29
102
}
330
29
100
AcDbVisualStyle
  2
FlatWithEdges
 70
     1
177
     3
291
     1
 70
    58
 90
        2
176
     1
 90
        1
176
     1
 90
        1
176
     1
 90
        2
176
     1
 40
0.6
176
     1
 40
30.0
176
     1
 62
     7
420
 16777215
176
     1
 90
        1
176
     1
 90
        0
176
     1
 62
     7
176
     1
 62
   257
176
     1
 90
        1
176
     1
 90
        1
176
     1
 40
1.0
176
     1
 90
        0
176
     1
 62
   257
176
     1
 40
1.0
176
     1
 90
        1
176
     1
 90
        6
176
     1
 90
        2
176
     1
 62
     7
176
     1
 90
        5
176
     1
 90
        0
176
     1
 90
        0
176
     1
290
     0
176
     1
 90
       13
176
     1
 40
0.0
176
     1
 90
        0
176
     1
290
     0
176
     1
290
     1
176
     1
290
     1
176
     1
290
     0
176
     1
290
     0
176
     1
290
     0
176
     1
290
     0
176
     1
290
     0
176
     1
290
     0
176
     1
 90
       50
176
     1
 40
0.0
176
     1
 40
1.0
176
     1
 90
        0
176
     1
 62
    18
420
        0
176
     1
 90
       50
176
     1
 90
        3
176
     1
 62
     5
420
      255
176
     1
290
     0
176
     1
 90
       50
176
     1
 90
       50
176
     1
 90
       50
176
     1
290
     0
176
     1
 90
       50
176
     1
 62
   256
176
     0
 40
1.0
176
     0
 90
        2
176
     1
  1
strokes_ogs.tif
176
     1
290
     0
176
     1
 40
1.0
176
     1
 40
1.0
176
     1
  0
VISUALSTYLE
  5
2C
102
{ACAD_REACTORS
330
29
102
}
330
29
100
AcDbVisualStyle
  2
Gouraud
 70
     2
177
     3
291
     1
 70
    58
 90
        2
176
     1
 90
        2
176
     1
 90
        1
176
     1
 90
        2
176
     1
 40
0.6
176
     1
 40
30.0
176
     1
 62
     7
420
 16777215
176
     1
 90
        0
176
     1
 90
        0
176
     1
 62
     7
176
     1
 62
   257
176
     1
 90
        1
176
     1
 90
        1
176
     1
 40
1.0
176
     1
 90
        0
176
     1
 62
     7
176
     1
 40
1.0
176
     1
 90
        1
176
     1
 90
        6
176
     1
 90
        2
176
     1
 62
     7
176
     1
 90
        5
176
     1
 90
        0
176
     1
 90
        0
176
     1
290
     0
176
     1
 90
       13
176
     1
 40
0.0
176
     1
 90
        0
176
     1
290
     0
176
     1
290
     1
176
     1
290
     1
176
     1
290
     0
176
     1
290
     0
176
     1
290
     0
176
     1
290
     0
176
     1
290
     0
176
     1
290
     0
176
     1
 90
       50
176
     1
 40
0.0
176
     1
 40
1.0
176
     1
 90
        0
176
     1
 62
    18
420
        0
176
     1
 90
       50
176
     1
 90
        3
176
     1
 62
     5
420
      255
176
     1
290
     0
176
     1
 90
       50
176
     1
 90
       50
176
     1
 90
       50
176
     1
290
     0
176
     1
 90
       50
176
     1
 62
   256
176
     0
 40
1.0
176
     0
 90
        2
176
     1
  1
strokes_ogs.tif
176
     1
290
     0
176
     1
 40
1.0
176
     1
 40
1.0
176
     1
  0
VISUALSTYLE
  5
2D
102
{ACAD_REACTORS
330
29
102
}
330
29
100
AcDbVisualStyle
  2
GouraudWithEdges
 70
     3
177
     3
291
     1
 70
    58
 90
        2
176
     1
 90
        2
176
     1
 90
        1
176
     1
 90
        2
176
     1
 40
0.6
176
     1
 40
30.0
176
     1
 62
     7
420
 16777215
176
     1
 90
        1
176
     1
 90
        0
176
     1
 62
     7
176
     1
 62
   257
176
     1
 90
        1
176
     1
 90
        1
176
     1
 40
1.0
176
     1
 90
        0
176
     1
 62
   257
176
     1
 40
1.0
176
     1
 90
        1
176
     1
 90
        6
176
     1
 90
        2
176
     1
 62
     7
176
     1
 90
        5
176
     1
 90
        0
176
     1
 90
        0
176
     1
290
     0
176
     1
 90
       13
176
     1
 40
0.0
176
     1
 90
        0
176
     1
290
     0
176
     1
290
     1
176
     1
290
     1
176
     1
290
     0
176
     1
290
     0
176
     1
290
     0
176
     1
290
     0
176
     1
290
     0
176
     1
290
     0
176
     1
 90
       50
176
     1
 40
0.0
176
     1
 40
1.0
176
     1
 90
        0
176
     1
 62
    18
420
        0
176
     1
 90
       50
176
     1
 90
        3
176
     1
 62
     5
420
      255
176
     1
290
     0
176
     1
 90
       50
176
     1
 90
       50
176
     1
 90
       50
176
     1
290
     0
176
     1
 90
       50
176
     1
 62
   256
176
     0
 40
1.0
176
     0
 90
        2
176
     1
  1
strokes_ogs.tif
176
     1
290
     0
176
     1
 40
1.0
176
     1
 40
1.0
176
     1
  0
VISUALSTYLE
  5
31
102
{ACAD_REACTORS
330
29
102
}
330
29
100
AcDbVisualStyle
  2
Hidden
 70
     6
177
     3
291
     0
 70
    58
 90
        1
176
     1
 90
        2
176
     1
 90
        2
176
     1
 90
        0
176
     1
 40
0.6
176
     1
 40
30.0
176
     1
 62
     7
420
 16777215
176
     1
 90
        2
176
     1
 90
        2
176
     1
 62
     7
176
     1
 62
   257
176
     1
 90
        2
176
     1
 90
        1
176
     1
 40
40.0
176
     1
 90
        0
176
     1
 62
   257
176
     1
 40
1.0
176
     1
 90
        1
176
     1
 90
        6
176
     1
 90
        2
176
     1
 62
     7
176
     1
 90
        3
176
     1
 90
        0
176
     1
 90
        0
176
     1
290
     0
176
     1
 90
        1
176
     1
 40
0.0
176
     1
 90
        0
176
     1
290
     0
176
     1
290
     1
176
     1
290
     1
176
     1
290
     0
176
     1
290
     0
176
     1
290
     0
176
     1
290
     0
176
     1
290
     0
176
     1
290
     0
176
     1
 90
       50
176
     1
 40
0.0
176
     1
 40
1.0
176
     1
 90
        0
176
     1
 62
    18
420
        0
176
     1
 90
       50
176
     1
 90
        3
176
     1
 62
     5
420
      255
176
     1
290
     0
176
     1
 90
       50
176
     1
 90
       50
176
     1
 90
       50
176
     1
290
     0
176
     1
 90
       50
176
     1
 62
   256
176
     0
 40
1.0
176
     0
 90
        2
176
     1
  1
strokes_ogs.tif
176
     1
290
     0
176
     1
 40
1.0
176
     1
 40
1.0
176
     1
  0
VISUALSTYLE
  5
3F
102
{ACAD_REACTORS
330
29
102
}
330
29
100
AcDbVisualStyle
  2
JitterOff
 70
    20
177
     3
291
     1
 70
    58
 90
        2
176
     0
 90
        2
176
     0
 90
        0
176
     0
 90
        0
176
     0
 40
0.6
176
     0
 40
30.0
176
     0
 62
     7
420
 16777215
176
     0
 90
        1
176
     0
 90
        4
176
     0
 62
     7
176
     0
 62
   257
176
     0
 90
        1
176
     0
 90
        1
176
     0
 40
1.0
176
     0
 90
       10
176
     2
 62
     7
176
     0
 40
1.0
176
     0
 90
        1
176
     0
 90
        6
176
     0
 90
        2
176
     0
 62
     7
176
     0
 90
        5
176
     0
 90
        0
176
     0
 90
        0
176
     0
290
     0
176
     0
 90
        1
176
     0
 40
0.0
176
     0
 90
        0
176
     0
290
     0
176
     0
290
     1
176
     0
290
     1
176
     0
290
     0
176
     0
290
     0
176
     0
290
     0
176
     0
290
     0
176
     0
290
     0
176
     0
290
     0
176
     0
 90
       50
176
     0
 40
0.0
176
     0
 40
1.0
176
     0
 90
        0
176
     0
 62
    18
420
        0
176
     0
 90
       50
176
     0
 90
        3
176
     0
 62
     5
420
      255
176
     0
290
     0
176
     0
 90
       50
176
     0
 90
       50
176
     0
 90
       50
176
     0
290
     0
176
     0
 90
       50
176
     0
 62
   256
176
     0
 40
1.0
176
     0
 90
        2
176
     0
  1
strokes_ogs.tif
176
     0
290
     0
176
     0
 40
1.0
176
     0
 40
1.0
176
     0
  0
VISUALSTYLE
  5
37
102
{ACAD_REACTORS
330
29
102
}
330
29
100
AcDbVisualStyle
  2
Linepattern
 70
    14
177
     3
291
     1
 70
    58
 90
        2
176
     1
 90
        2
176
     1
 90
        0
176
     1
 90
        0
176
     1
 40
0.6
176
     1
 40
30.0
176
     1
 62
     7
420
 16777215
176
     1
 90
        1
176
     1
 90
        4
176
     1
 62
     7
176
     1
 62
   257
176
     1
 90
        7
176
     1
 90
        7
176
     1
 40
1.0
176
     1
 90
        8
176
     1
 62
     7
176
     1
 40
1.0
176
     1
 90
        1
176
     1
 90
        6
176
     1
 90
        2
176
     1
 62
     7
176
     1
 90
        5
176
     1
 90
        0
176
     1
 90
        0
176
     1
290
     0
176
     1
 90
        1
176
     1
 40
0.0
176
     1
 90
        0
176
     1
290
     0
176
     1
290
     1
176
     1
290
     1
176
     1
290
     0
176
     1
290
     0
176
     1
290
     0
176
     1
290
     0
176
     1
290
     0
176
     1
290
     0
176
     1
 90
       50
176
     1
 40
0.0
176
     1
 40
1.0
176
     1
 90
        0
176
     1
 62
    18
420
        0
176
     1
 90
       50
176
     1
 90
        3
176
     1
 62
     5
420
      255
176
     1
290
     0
176
     1
 90
       50
176
     1
 90
       50
176
     1
 90
       50
176
     1
290
     0
176
     1
 90
       50
176
     1
 62
   256
176
     0
 40
1.0
176
     0
 90
        2
176
     1
  1
strokes_ogs.tif
176
     1
290
     0
176
     1
 40
1.0
176
     1
 40
1.0
176
     1
  0
VISUALSTYLE
  5
40
102
{ACAD_REACTORS
330
29
102
}
330
29
100
AcDbVisualStyle
  2
OverhangOff
 70
    21
177
     3
291
     1
 70
    58
 90
        2
176
     0
 90
        2
176
     0
 90
        0
176
     0
 90
        0
176
     0
 40
0.6
176
     0
 40
30.0
176
     0
 62
     7
420
 16777215
176
     0
 90
        1
176
     0
 90
        4
176
     0
 62
     7
176
     0
 62
   257
176
     0
 90
        1
176
     0
 90
        1
176
     0
 40
1.0
176
     0
 90
        9
176
     2
 62
     7
176
     0
 40
1.0
176
     0
 90
        1
176
     0
 90
        6
176
     0
 90
        2
176
     0
 62
     7
176
     0
 90
        5
176
     0
 90
        0
176
     0
 90
        0
176
     0
290
     0
176
     0
 90
        1
176
     0
 40
0.0
176
     0
 90
        0
176
     0
290
     0
176
     0
290
     1
176
     0
290
     1
176
     0
290
     0
176
     0
290
     0
176
     0
290
     0
176
     0
290
     0
176
     0
290
     0
176
     0
290
     0
176
     0
 90
       50
176
     0
 40
0.0
176
     0
 40
1.0
176
     0
 90
        0
176
     0
 62
    18
420
        0
176
     0
 90
       50
176
     0
 90
        3
176
     0
 62
     5
420
      255
176
     0
290
     0
176
     0
 90
       50
176
     0
 90
       50
176
     0
 90
       50
176
     0
290
     0
176
     0
 90
       50
176
     0
 62
   256
176
     0
 40
1.0
176
     0
 90
        2
176
     0
  1
strokes_ogs.tif
176
     0
290
     0
176
     0
 40
1.0
176
     0
 40
1.0
176
     0
  0
VISUALSTYLE
  5
33
102
{ACAD_REACTORS
330
29
102
}
330
29
100
AcDbVisualStyle
  2
Realistic
 70
     8
177
     3
291
     0
 70
    58
 90
        2
176
     1
 90
        3
176
     1
 90
        0
176
     1
 90
        2
176
     1
 40
0.6
176
     1
 40
30.0
176
     1
 62
     7
420
 16777215
176
     1
 90
        0
176
     1
 90
        0
176
     1
 62
     7
176
     1
 62
   257
176
     1
 90
        1
176
     1
 90
        1
176
     1
 40
1.0
176
     1
 90
        8
176
     1
 62
   257
176
     1
 40
1.0
176
     1
 90
        1
176
     1
 90
        6
176
     1
 90
        2
176
     1
 62
     7
176
     1
 90
        3
176
     1
 90
        0
176
     1
 90
        0
176
     1
290
     0
176
     1
 90
       13
176
     1
 40
0.0
176
     1
 90
        0
176
     1
290
     0
176
     1
290
     1
176
     1
290
     1
176
     1
290
     0
176
     1
290
     0
176
     1
290
     0
176
     1
290
     0
176
     1
290
     0
176
     1
290
     0
176
     1
 90
       50
176
     1
 40
0.0
176
     1
 40
1.0
176
     1
 90
        0
176
     1
 62
    18
420
        0
176
     1
 90
       50
176
     1
 90
        3
176
     1
 62
     5
420
      255
176
     1
290
     0
176
     1
 90
       50
176
     1
 90
       50
176
     1
 90
       50
176
     1
290
     0
176
     1
 90
       50
176
     1
 62
   256
176
     0
 40
1.0
176
     0
 90
        2
176
     1
  1
strokes_ogs.tif
176
     1
290
     0
176
     1
 40
1.0
176
     1
 40
1.0
176
     1
  0
VISUALSTYLE
  5
3E
102
{ACAD_REACTORS
330
29
102
}
330
29
100
AcDbVisualStyle
  2
Shaded
 70
    27
177
     3
291
     0
 70
    58
 90
        2
176
     1
 90
        2
176
     1
 90
        1
176
     1
 90
        2
176
     1
 40
0.6
176
     1
 40
30.0
176
     1
 62
     7
420
 16777215
176
     1
 90
        0
176
     1
 90
        4
176
     1
 62
     7
176
     1
 62
   257
176
     1
 90
        1
176
     1
 90
        1
176
     1
 40
1.0
176
     1
 90
        8
176
     1
 62
   257
176
     1
 40
1.0
176
     1
 90
        1
176
     1
 90
        6
176
     1
 90
        2
176
     1
 62
     8
420
  7895160
176
     1
 90
        3
176
     1
 90
        0
176
     1
 90
        0
176
     1
290
     0
176
     1
 90
        5
176
     1
 40
0.0
176
     1
 90
        0
176
     1
290
     0
176
     1
290
     1
176
     1
290
     1
176
     1
290
     0
176
     1
290
     0
176
     1
290
     0
176
     1
290
     0
176
     1
290
     0
176
     1
290
     0
176
     1
 90
       50
176
     1
 40
0.0
176
     1
 40
1.0
176
     1
 90
        0
176
     1
 62
    18
420
        0
176
     1
 90
       50
176
     1
 90
        3
176
     1
 62
     5
420
      255
176
     1
290
     0
176
     1
 90
       50
176
     1
 90
       50
176
     1
 90
       50
176
     1
290
     0
176
     1
 90
       50
176
     1
 62
   256
176
     0
 40
1.0
176
     0
 90
        2
176
     1
  1
strokes_ogs.tif
176
     1
290
     0
176
     1
 40
1.0
176
     1
 40
1.0
176
     1
  0
VISUALSTYLE
  5
3D
102
{ACAD_REACTORS
330
29
102
}
330
29
100
AcDbVisualStyle
  2
Shaded with edges
 70
    26
177
     3
291
     0
 70
    58
 90
        2
176
     1
 90
        2
176
     1
 90
        1
176
     1
 90
        2
176
     1
 40
0.6
176
     1
 40
30.0
176
     1
 62
     7
420
 16777215
176
     1
 90
        1
176
     1
 90
        2
176
     1
 62
     7
176
     1
 62
   257
176
     1
 90
        2
176
     1
 90
        1
176
     1
 40
1.0
176
     1
 90
        8
176
     1
 62
   257
176
     1
 40
1.0
176
     1
 90
        1
176
     1
 90
        6
176
     1
 90
        2
176
     1
 62
     7
176
     1
 90
        3
176
     1
 90
        0
176
     1
 90
        0
176
     1
290
     0
176
     1
 90
        5
176
     1
 40
0.0
176
     1
 90
        0
176
     1
290
     0
176
     1
290
     1
176
     1
290
     1
176
     1
290
     0
176
     1
290
     0
176
     1
290
     0
176
     1
290
     0
176
     1
290
     0
176
     1
290
     0
176
     1
 90
       50
176
     1
 40
0.0
176
     1
 40
1.0
176
     1
 90
        0
176
     1
 62
    18
420
        0
176
     1
 90
       50
176
     1
 90
        3
176
     1
 62
     5
420
      255
176
     1
290
     0
176
     1
 90
       50
176
     1
 90
       50
176
     1
 90
       50
176
     1
290
     0
176
     1
 90
       50
176
     1
 62
   256
176
     0
 40
1.0
176
     0
 90
        2
176
     1
  1
strokes_ogs.tif
176
     1
290
     0
176
     1
 40
1.0
176
     1
 40
1.0
176
     1
  0
VISUALSTYLE
  5
3A
102
{ACAD_REACTORS
330
29
102
}
330
29
100
AcDbVisualStyle
  2
Shades of Gray
 70
    23
177
     3
291
     0
 70
    58
 90
        2
176
     1
 90
        2
176
     1
 90
        3
176
     1
 90
        0
176
     1
 40
0.6
176
     1
 40
30.0
176
     1
 62
     7
420
 16777215
176
     1
 90
        2
176
     1
 90
        2
176
     1
 62
     7
176
     1
 62
     7
176
     1
 90
        1
176
     1
 90
        1
176
     1
 40
40.0
176
     1
 90
        8
176
     1
 62
     7
176
     1
 40
1.0
176
     1
 90
        1
176
     1
 90
        6
176
     1
 90
        2
176
     1
 62
     7
176
     1
 90
        3
176
     1
 90
        0
176
     1
 90
        0
176
     1
290
     0
176
     1
 90
        1
176
     1
 40
0.0
176
     1
 90
        0
176
     1
290
     0
176
     1
290
     1
176
     1
290
     1
176
     1
290
     0
176
     1
290
     0
176
     1
290
     0
176
     1
290
     0
176
     1
290
     0
176
     1
290
     0
176
     1
 90
       50
176
     1
 40
0.0
176
     1
 40
1.0
176
     1
 90
        0
176
     1
 62
    18
420
        0
176
     1
 90
       50
176
     1
 90
        3
176
     1
 62
     5
420
      255
176
     1
290
     0
176
     1
 90
       50
176
     1
 90
       50
176
     1
 90
       50
176
     1
290
     0
176
     1
 90
       50
176
     1
 62
   256
176
     0
 40
1.0
176
     0
 90
        2
176
     1
  1
strokes_ogs.tif
176
     1
290
     0
176
     1
 40
1.0
176
     1
 40
1.0
176
     1
  0
VISUALSTYLE
  5
3B
102
{ACAD_REACTORS
330
29
102
}
330
29
100
AcDbVisualStyle
  2
Sketchy
 70
    24
177
     3
291
     0
 70
    58
 90
        1
176
     1
 90
        2
176
     1
 90
        2
176
     1
 90
        0
176
     1
 40
0.6
176
     1
 40
30.0
176
     1
 62
     7
420
 16777215
176
     1
 90
        2
176
     1
 90
        2
176
     1
 62
     7
176
     1
 62
     7
176
     1
 90
        1
176
     1
 90
        1
176
     1
 40
40.0
176
     1
 90
       11
176
     1
 62
     7
176
     1
 40
1.0
176
     1
 90
        1
176
     1
 90
        6
176
     1
 90
        2
176
     1
 62
     7
176
     1
 90
        6
176
     1
 90
        0
176
     1
 90
        0
176
     1
290
     0
176
     1
 90
        1
176
     1
 40
0.0
176
     1
 90
        0
176
     1
290
     0
176
     1
290
     1
176
     1
290
     1
176
     1
290
     0
176
     1
290
     0
176
     1
290
     0
176
     1
290
     0
176
     1
290
     0
176
     1
290
     0
176
     1
 90
       50
176
     1
 40
0.0
176
     1
 40
1.0
176
     1
 90
        0
176
     1
 62
    18
420
        0
176
     1
 90
       50
176
     1
 90
        3
176
     1
 62
     5
420
      255
176
     1
290
     0
176
     1
 90
       50
176
     1
 90
       50
176
     1
 90
       50
176
     1
290
     0
176
     1
 90
       50
176
     1
 62
   256
176
     0
 40
1.0
176
     0
 90
        2
176
     1
  1
strokes_ogs.tif
176
     1
290
     0
176
     1
 40
1.0
176
     1
 40
1.0
176
     1
  0
VISUALSTYLE
  5
36
102
{ACAD_REACTORS
330
29
102
}
330
29
100
AcDbVisualStyle
  2
Thicken
 70
    13
177
     3
291
     1
 70
    58
 90
        2
176
     1
 90
        2
176
     1
 90
        0
176
     1
 90
        0
176
     1
 40
0.6
176
     1
 40
30.0
176
     1
 62
     7
420
 16777215
176
     1
 90
        1
176
     1
 90
        4
176
     1
 62
     7
176
     1
 62
   257
176
     1
 90
        1
176
     1
 90
        1
176
     1
 40
1.0
176
     1
 90
       12
176
     1
 62
     7
176
     1
 40
1.0
176
     1
 90
        1
176
     1
 90
        6
176
     1
 90
        2
176
     1
 62
     7
176
     1
 90
        5
176
     1
 90
        0
176
     1
 90
        0
176
     1
290
     0
176
     1
 90
        1
176
     1
 40
0.0
176
     1
 90
        0
176
     1
290
     0
176
     1
290
     1
176
     1
290
     1
176
     1
290
     0
176
     1
290
     0
176
     1
290
     0
176
     1
290
     0
176
     1
290
     0
176
     1
290
     0
176
     1
 90
       50
176
     1
 40
0.0
176
     1
 40
1.0
176
     1
 90
        0
176
     1
 62
    18
420
        0
176
     1
 90
       50
176
     1
 90
        3
176
     1
 62
     5
420
      255
176
     1
290
     0
176
     1
 90
       50
176
     1
 90
       50
176
     1
 90
       50
176
     1
290
     0
176
     1
 90
       50
176
     1
 62
   256
176
     0
 40
1.0
176
     0
 90
        2
176
     1
  1
strokes_ogs.tif
176
     1
290
     0
176
     1
 40
1.0
176
     1
 40
1.0
176
     1
  0
VISUALSTYLE
  5
30
102
{ACAD_REACTORS
330
29
102
}
330
29
100
AcDbVisualStyle
  2
Wireframe
 70
     5
177
     3
291
     0
 70
    58
 90
        0
176
     1
 90
        2
176
     1
 90
        0
176
     1
 90
        0
176
     1
 40
0.6
176
     1
 40
30.0
176
     1
 62
     7
420
 16777215
176
     1
 90
        1
176
     1
 90
        4
176
     1
 62
     7
176
     1
 62
   257
176
     1
 90
        1
176
     1
 90
        1
176
     1
 40
1.0
176
     1
 90
        0
176
     1
 62
   257
176
     1
 40
1.0
176
     1
 90
        1
176
     1
 90
        6
176
     1
 90
        2
176
     1
 62
     7
176
     1
 90
        3
176
     1
 90
        0
176
     1
 90
        0
176
     1
290
     0
176
     1
 90
        1
176
     1
 40
0.0
176
     1
 90
        0
176
     1
290
     0
176
     1
290
     1
176
     1
290
     1
176
     1
290
     0
176
     1
290
     0
176
     1
290
     0
176
     1
290
     0
176
     1
290
     0
176
     1
290
     0
176
     1
 90
       50
176
     1
 40
0.0
176
     1
 40
1.0
176
     1
 90
        0
176
     1
 62
    18
420
        0
176
     1
 90
       50
176
     1
 90
        3
176
     1
 62
     5
420
      255
176
     1
290
     0
176
     1
 90
       50
176
     1
 90
       50
176
     1
 90
       50
176
     1
290
     0
176
     1
 90
       50
176
     1
 62
   256
176
     0
 40
1.0
176
     0
 90
        2
176
     1
  1
strokes_ogs.tif
176
     1
290
     0
176
     1
 40
1.0
176
     1
 40
1.0
176
     1
  0
VISUALSTYLE
  5
3C
102
{ACAD_REACTORS
330
29
102
}
330
29
100
AcDbVisualStyle
  2
X-Ray
 70
    25
177
     3
291
     0
 70
    58
 90
        2
176
     1
 90
        2
176
     1
 90
        1
176
     1
 90
        1
176
     1
 40
0.5
176
     1
 40
30.0
176
     1
 62
     7
420
 16777215
176
     1
 90
        1
176
     1
 90
        0
176
     1
 62
     7
176
     1
 62
   257
176
     1
 90
        1
176
     1
 90
        1
176
     1
 40
1.0
176
     1
 90
        8
176
     1
 62
     7
176
     1
 40
1.0
176
     1
 90
        1
176
     1
 90
        6
176
     1
 90
        2
176
     1
 62
     7
176
     1
 90
        3
176
     1
 90
        0
176
     1
 90
        0
176
     1
290
     0
176
     1
 90
       13
176
     1
 40
0.0
176
     1
 90
        0
176
     1
290
     0
176
     1
290
     1
176
     1
290
     1
176
     1
290
     0
176
     1
290
     0
176
     1
290
     0
176
     1
290
     0
176
     1
290
     0
176
     1
290
     0
176
     1
 90
       50
176
     1
 40
0.0
176
     1
 40
1.0
176
     1
 90
        0
176
     1
 62
    18
420
        0
176
     1
 90
       50
176
     1
 90
        3
176
     1
 62
     5
420
      255
176
     1
290
     0
176
     1
 90
       50
176
     1
 90
       50
176
     1
 90
       50
176
     1
290
     0
176
     1
 90
       50
176
     1
 62
   256
176
     0
 40
1.0
176
     0
 90
        2
176
     1
  1
strokes_ogs.tif
176
     1
290
     0
176
     1
 40
1.0
176
     1
 40
1.0
176
     1
  0
DICTIONARYVAR
  5
24B
102
{ACAD_REACTORS
330
246
102
}
330
246
100
DictionaryVariables
280
     0
  1
1:1
  0
DICTIONARYVAR
  5
248
102
{ACAD_REACTORS
330
246
102
}
330
246
100
DictionaryVariables
280
     0
  1
STANDARD
  0
DICTIONARYVAR
  5
247
102
{ACAD_REACTORS
330
246
102
}
330
246
100
DictionaryVariables
280
     0
  1
STANDARD
  0
DICTIONARYVAR
  5
249
102
{ACAD_REACTORS
330
246
102
}
330
246
100
DictionaryVariables
280
     0
  1
Imperial24
  0
DICTIONARYVAR
  5
24A
102
{ACAD_REACTORS
330
246
102
}
330
246
100
DictionaryVariables
280
     0
  1
Imperial24
  0
DICTIONARY
  5
1A
330
19
100
AcDbDictionary
280
     1
281
     1
  3
BUMPTILE
360
1C
  3
DIFFUSETILE
360
1B
  3
OPACITYTILE
360
1F
  3
REFLECTIONTILE
360
1E
  3
REFRACTIONTILE
360
20
  3
SPECULARTILE
360
1D
  0
DICTIONARY
  5
12
330
11
100
AcDbDictionary
280
     1
281
     1
  3
BUMPTILE
360
14
  3
DIFFUSETILE
360
13
  3
OPACITYTILE
360
17
  3
REFLECTIONTILE
360
16
  3
REFRACTIONTILE
360
18
  3
SPECULARTILE
360
15
  0
DICTIONARY
  5
22
330
21
100
AcDbDictionary
280
     1
281
     1
  3
BUMPTILE
360
24
  3
DIFFUSETILE
360
23
  3
OPACITYTILE
360
27
  3
REFLECTIONTILE
360
26
  3
REFRACTIONTILE
360
28
  3
SPECULARTILE
360
25
  0
DICTIONARY
  5
24C
330
65
100
AcDbDictionary
280
     1
281
     1
  3
ACAD_ROUNDTRIP_2008_TABLESTYLE_CELLSTYLEMAP
360
24D
  0
XRECORD
  5
1C
102
{ACAD_REACTORS
330
1A
102
}
330
1A
100
AcDbXrecord
280
     1
270
     1
271
     1
  0
XRECORD
  5
1B
102
{ACAD_REACTORS
330
1A
102
}
330
1A
100
AcDbXrecord
280
     1
270
     1
271
     1
  0
XRECORD
  5
1F
102
{ACAD_REACTORS
330
1A
102
}
330
1A
100
AcDbXrecord
280
     1
270
     1
271
     1
  0
XRECORD
  5
1E
102
{ACAD_REACTORS
330
1A
102
}
330
1A
100
AcDbXrecord
280
     1
270
     1
271
     1
  0
XRECORD
  5
20
102
{ACAD_REACTORS
330
1A
102
}
330
1A
100
AcDbXrecord
280
     1
270
     1
271
     1
  0
XRECORD
  5
1D
102
{ACAD_REACTORS
330
1A
102
}
330
1A
100
AcDbXrecord
280
     1
270
     1
271
     1
  0
XRECORD
  5
14
102
{ACAD_REACTORS
330
12
102
}
330
12
100
AcDbXrecord
280
     1
270
     1
271
     1
  0
XRECORD
  5
13
102
{ACAD_REACTORS
330
12
102
}
330
12
100
AcDbXrecord
280
     1
270
     1
271
     1
  0
XRECORD
  5
17
102
{ACAD_REACTORS
330
12
102
}
330
12
100
AcDbXrecord
280
     1
270
     1
271
     1
  0
XRECORD
  5
16
102
{ACAD_REACTORS
330
12
102
}
330
12
100
AcDbXrecord
280
     1
270
     1
271
     1
  0
XRECORD
  5
18
102
{ACAD_REACTORS
330
12
102
}
330
12
100
AcDbXrecord
280
     1
270
     1
271
     1
  0
XRECORD
  5
15
102
{ACAD_REACTORS
330
12
102
}
330
12
100
AcDbXrecord
280
     1
270
     1
271
     1
  0
XRECORD
  5
24
102
{ACAD_REACTORS
330
22
102
}
330
22
100
AcDbXrecord
280
     1
270
     1
271
     1
  0
XRECORD
  5
23
102
{ACAD_REACTORS
330
22
102
}
330
22
100
AcDbXrecord
280
     1
270
     1
271
     1
  0
XRECORD
  5
27
102
{ACAD_REACTORS
330
22
102
}
330
22
100
AcDbXrecord
280
     1
270
     1
271
     1
  0
XRECORD
  5
26
102
{ACAD_REACTORS
330
22
102
}
330
22
100
AcDbXrecord
280
     1
270
     1
271
     1
  0
XRECORD
  5
28
102
{ACAD_REACTORS
330
22
102
}
330
22
100
AcDbXrecord
280
     1
270
     1
271
     1
  0
XRECORD
  5
25
102
{ACAD_REACTORS
330
22
102
}
330
22
100
AcDbXrecord
280
     1
270
     1
271
     1
  0
CELLSTYLEMAP
  5
24D
102
{ACAD_REACTORS
330
24C
102
}
330
24C
100
AcDbCellStyleMap
 90
        3
300
CELLSTYLE
  1
TABLEFORMAT_BEGIN
 90
        5
170
     1
 91
        0
 92
    32768
 62
   257
 93
        1
300
CONTENTFORMAT
  1
CONTENTFORMAT_BEGIN
 90
        0
 91
        0
 92
      512
 93
        0
300

 40
0.0
140
1.0
 94
        5
 62
     0
340
55
144
0.25
309
CONTENTFORMAT_END
171
     0
 94
        0
309
TABLEFORMAT_END
  1
CELLSTYLE_BEGIN
 90
        1
 91
        1
300
_TITLE
309
CELLSTYLE_END
300
CELLSTYLE
  1
TABLEFORMAT_BEGIN
 90
        5
170
     1
 91
        0
 92
        0
 62
   257
 93
        1
300
CONTENTFORMAT
  1
CONTENTFORMAT_BEGIN
 90
        0
 91
        0
 92
      512
 93
        0
300

 40
0.0
140
1.0
 94
        5
 62
     0
340
55
144
0.18
309
CONTENTFORMAT_END
171
     0
 94
        0
309
TABLEFORMAT_END
  1
CELLSTYLE_BEGIN
 90
        2
 91
        1
300
_HEADER
309
CELLSTYLE_END
300
CELLSTYLE
  1
TABLEFORMAT_BEGIN
 90
        5
170
     1
 91
        0
 92
        0
 62
   257
 93
        1
300
CONTENTFORMAT
  1
CONTENTFORMAT_BEGIN
 90
        0
 91
        0
 92
      512
 93
        0
300

 40
0.0
140
1.0
 94
        2
 62
     0
340
55
144
0.18
309
CONTENTFORMAT_END
171
     0
 94
        0
309
TABLEFORMAT_END
  1
CELLSTYLE_BEGIN
 90
        3
 91
        2
300
_DATA
309
CELLSTYLE_END
  0
ENDSEC
  0
EOF
