  0
SECTION
  2
HEADER
  9
$ACADVER
  1
AC1032
  9
$ACADMAINTVER
 90
      228
  9
$DWGCODEPAGE
  3
ANSI_932
  9
$REQUIREDVERSIONS
160
                 0
  9
$INSBASE
 10
0.0
 20
0.0
 30
0.0
  9
$EXTMIN
 10
1.000000000000000E+20
 20
1.000000000000000E+20
 30
1.000000000000000E+20
  9
$EXTMAX
 10
-1.000000000000000E+20
 20
-1.000000000000000E+20
 30
-1.000000000000000E+20
  9
$LIMMIN
 10
0.0
 20
0.0
  9
$LIMMAX
 10
12.0
 20
9.0
  9
$ORTHOMODE
 70
     0
  9
$REGENMODE
 70
     1
  9
$FILLMODE
 70
     1
  9
$QTEXTMODE
 70
     0
  9
$MIRRTEXT
 70
     0
  9
$LTSCALE
 40
1.0
  9
$ATTMODE
 70
     1
  9
$TEXTSIZE
 40
0.2
  9
$TRACEWID
 40
0.05
  9
$TEXTSTYLE
  7
Standard
  9
$CLAYER
  8
0
  9
$CELTYPE
  6
ByLayer
  9
$CECOLOR
 62
   256
  9
$CELTSCALE
 40
1.0
  9
$DISPSILH
 70
     0
  9
$DIMSCALE
 40
1.0
  9
$DIMASZ
 40
0.18
  9
$DIMEXO
 40
0.0625
  9
$DIMDLI
 40
0.38
  9
$DIMRND
 40
0.0
  9
$DIMDLE
 40
0.0
  9
$DIMEXE
 40
0.18
  9
$DIMTP
 40
0.0
  9
$DIMTM
 40
0.0
  9
$DIMTXT
 40
0.18
  9
$DIMCEN
 40
0.09
  9
$DIMTSZ
 40
0.0
  9
$DIMTOL
 70
     0
  9
$DIMLIM
 70
     0
  9
$DIMTIH
 70
     1
  9
$DIMTOH
 70
     1
  9
$DIMSE1
 70
     0
  9
$DIMSE2
 70
     0
  9
$DIMTAD
 70
     0
  9
$DIMZIN
 70
     0
  9
$DIMBLK
  1

  9
$DIMASO
 70
     1
  9
$DIMSHO
 70
     1
  9
$DIMPOST
  1

  9
$DIMAPOST
  1

  9
$DIMALT
 70
     0
  9
$DIMALTD
 70
     2
  9
$DIMALTF
 40
25.4
  9
$DIMLFAC
 40
1.0
  9
$DIMTOFL
 70
     0
  9
$DIMTVP
 40
0.0
  9
$DIMTIX
 70
     0
  9
$DIMSOXD
 70
     0
  9
$DIMSAH
 70
     0
  9
$DIMBLK1
  1

  9
$DIMBLK2
  1

  9
$DIMSTYLE
  2
Standard
  9
$DIMCLRD
 70
     0
  9
$DIMCLRE
 70
     0
  9
$DIMCLRT
 70
     0
  9
$DIMTFAC
 40
1.0
  9
$DIMGAP
 40
0.09
  9
$DIMJUST
 70
     0
  9
$DIMSD1
 70
     0
  9
$DIMSD2
 70
     0
  9
$DIMTOLJ
 70
     1
  9
$DIMTZIN
 70
     0
  9
$DIMALTZ
 70
     0
  9
$DIMALTTZ
 70
     0
  9
$DIMUPT
 70
     0
  9
$DIMDEC
 70
     4
  9
$DIMTDEC
 70
     4
  9
$DIMALTU
 70
     2
  9
$DIMALTTD
 70
     2
  9
$DIMTXSTY
  7
Standard
  9
$DIMAUNIT
 70
     0
  9
$DIMADEC
 70
     0
  9
$DIMALTRND
 40
0.0
  9
$DIMAZIN
 70
     0
  9
$DIMDSEP
 70
    46
  9
$DIMATFIT
 70
     3
  9
$DIMFRAC
 70
     0
  9
$DIMLDRBLK
  1

  9
$DIMLUNIT
 70
     2
  9
$DIMLWD
 70
    -2
  9
$DIMLWE
 70
    -2
  9
$DIMTMOVE
 70
     0
  9
$DIMFXL
 40
1.0
  9
$DIMFXLON
 70
     0
  9
$DIMJOGANG
 40
0.7853981633974483
  9
$DIMTFILL
 70
     0
  9
$DIMTFILLCLR
 70
     0
  9
$DIMARCSYM
 70
     0
  9
$DIMLTYPE
  6

  9
$DIMLTEX1
  6

  9
$DIMLTEX2
  6

  9
$DIMTXTDIRECTION
 70
     0
  9
$LUNITS
 70
     2
  9
$LUPREC
 70
     4
  9
$SKETCHINC
 40
0.1
  9
$FILLETRAD
 40
0.0
  9
$AUNITS
 70
     0
  9
$AUPREC
 70
     0
  9
$MENU
  1
.
  9
$ELEVATION
 40
0.0
  9
$PELEVATION
 40
0.0
  9
$THICKNESS
 40
0.0
  9
$LIMCHECK
 70
     0
  9
$CHAMFERA
 40
0.0
  9
$CHAMFERB
 40
0.0
  9
$CHAMFERC
 40
0.0
  9
$CHAMFERD
 40
0.0
  9
$SKPOLY
 70
     0
  9
$TDCREATE
 40
2460062.621319444
  9
$TDUCREATE
 40
2460062.246319445
  9
$TDUPDATE
 40
2460062.621319444
  9
$TDUUPDATE
 40
2460062.246319445
  9
$TDINDWG
 40
0.0000000000
  9
$TDUSRTIMER
 40
0.0000000000
  9
$USRTIMER
 70
     1
  9
$ANGBASE
 50
0.0
  9
$ANGDIR
 70
     0
  9
$PDMODE
 70
     0
  9
$PDSIZE
 40
0.0
  9
$PLINEWID
 40
0.0
  9
$SPLFRAME
 70
     0
  9
$SPLINETYPE
 70
     6
  9
$SPLINESEGS
 70
     8
  9
$HANDSEED
  5
D2
  9
$SURFTAB1
 70
     6
  9
$SURFTAB2
 70
     6
  9
$SURFTYPE
 70
     6
  9
$SURFU
 70
     6
  9
$SURFV
 70
     6
  9
$UCSBASE
  2

  9
$UCSNAME
  2

  9
$UCSORG
 10
0.0
 20
0.0
 30
0.0
  9
$UCSXDIR
 10
1.0
 20
0.0
 30
0.0
  9
$UCSYDIR
 10
0.0
 20
1.0
 30
0.0
  9
$UCSORTHOREF
  2

  9
$UCSORTHOVIEW
 70
     0
  9
$UCSORGTOP
 10
0.0
 20
0.0
 30
0.0
  9
$UCSORGBOTTOM
 10
0.0
 20
0.0
 30
0.0
  9
$UCSORGLEFT
 10
0.0
 20
0.0
 30
0.0
  9
$UCSORGRIGHT
 10
0.0
 20
0.0
 30
0.0
  9
$UCSORGFRONT
 10
0.0
 20
0.0
 30
0.0
  9
$UCSORGBACK
 10
0.0
 20
0.0
 30
0.0
  9
$PUCSBASE
  2

  9
$PUCSNAME
  2

  9
$PUCSORG
 10
0.0
 20
0.0
 30
0.0
  9
$PUCSXDIR
 10
1.0
 20
0.0
 30
0.0
  9
$PUCSYDIR
 10
0.0
 20
1.0
 30
0.0
  9
$PUCSORTHOREF
  2

  9
$PUCSORTHOVIEW
 70
     0
  9
$PUCSORGTOP
 10
0.0
 20
0.0
 30
0.0
  9
$PUCSORGBOTTOM
 10
0.0
 20
0.0
 30
0.0
  9
$PUCSORGLEFT
 10
0.0
 20
0.0
 30
0.0
  9
$PUCSORGRIGHT
 10
0.0
 20
0.0
 30
0.0
  9
$PUCSORGFRONT
 10
0.0
 20
0.0
 30
0.0
  9
$PUCSORGBACK
 10
0.0
 20
0.0
 30
0.0
  9
$USERI1
 70
     0
  9
$USERI2
 70
     0
  9
$USERI3
 70
     0
  9
$USERI4
 70
     0
  9
$USERI5
 70
     0
  9
$USERR1
 40
0.0
  9
$USERR2
 40
0.0
  9
$USERR3
 40
0.0
  9
$USERR4
 40
0.0
  9
$USERR5
 40
0.0
  9
$WORLDVIEW
 70
     1
  9
$SHADEDGE
 70
     3
  9
$SHADEDIF
 70
    70
  9
$TILEMODE
 70
     1
  9
$MAXACTVP
 70
    64
  9
$PINSBASE
 10
0.0
 20
0.0
 30
0.0
  9
$PLIMCHECK
 70
     0
  9
$PEXTMIN
 10
1.000000000000000E+20
 20
1.000000000000000E+20
 30
1.000000000000000E+20
  9
$PEXTMAX
 10
-1.000000000000000E+20
 20
-1.000000000000000E+20
 30
-1.000000000000000E+20
  9
$PLIMMIN
 10
0.0
 20
0.0
  9
$PLIMMAX
 10
12.0
 20
9.0
  9
$UNITMODE
 70
     0
  9
$VISRETAIN
 70
     1
  9
$PLINEGEN
 70
     0
  9
$PSLTSCALE
 70
     1
  9
$TREEDEPTH
 70
  3020
  9
$CMLSTYLE
  2
Standard
  9
$CMLJUST
 70
     0
  9
$CMLSCALE
 40
1.0
  9
$PROXYGRAPHICS
 70
     1
  9
$MEASUREMENT
 70
     0
  9
$CELWEIGHT
370
    -1
  9
$ENDCAPS
280
     0
  9
$JOINSTYLE
280
     0
  9
$LWDISPLAY
290
     1
  9
$INSUNITS
 70
     4
  9
$HYPERLINKBASE
  1

  9
$STYLESHEET
  1

  9
$XEDIT
290
     1
  9
$CEPSNTYPE
380
     0
  9
$PSTYLEMODE
290
     1
  9
$FINGERPRINTGUID
  2
{F16FE01B-4E70-D342-AD34-925EC006881C}
  9
$VERSIONGUID
  2
{4FC005A6-A8CF-E84A-AB9F-C222292388C8}
  9
$EXTNAMES
290
     1
  9
$PSVPSCALE
 40
0.0
  9
$OLESTARTUP
290
     0
  9
$SORTENTS
280
   127
  9
$INDEXCTL
280
     0
  9
$HIDETEXT
280
     1
  9
$XCLIPFRAME
280
     2
  9
$HALOGAP
280
     0
  9
$OBSCOLOR
 70
   257
  9
$OBSLTYPE
280
     0
  9
$INTERSECTIONDISPLAY
280
     0
  9
$INTERSECTIONCOLOR
 70
   257
  9
$DIMASSOC
280
     2
  9
$PROJECTNAME
  1

  9
$CAMERADISPLAY
290
     0
  9
$LENSLENGTH
 40
50.0
  9
$CAMERAHEIGHT
 40
0.0
  9
$STEPSPERSEC
 40
2.0
  9
$STEPSIZE
 40
6.0
  9
$3DDWFPREC
 40
2.0
  9
$PSOLWIDTH
 40
0.25
  9
$PSOLHEIGHT
 40
4.0
  9
$LOFTANG1
 40
1.570796326794896
  9
$LOFTANG2
 40
1.570796326794896
  9
$LOFTMAG1
 40
0.0
  9
$LOFTMAG2
 40
0.0
  9
$LOFTPARAM
 70
     7
  9
$LOFTNORMALS
280
     1
  9
$LATITUDE
 40
37.795
  9
$LONGITUDE
 40
-122.394
  9
$NORTHDIRECTION
 40
0.0
  9
$TIMEZONE
 70
 -8000
  9
$LIGHTGLYPHDISPLAY
280
     1
  9
$TILEMODELIGHTSYNCH
280
     1
  9
$CMATERIAL
347
11
  9
$SOLIDHIST
280
     0
  9
$SHOWHIST
280
     1
  9
$DWFFRAME
280
     2
  9
$DGNFRAME
280
     0
  9
$REALWORLDSCALE
290
     1
  9
$INTERFERECOLOR
 62
     1
  9
$INTERFEREOBJVS
345
33
  9
$INTERFEREVPVS
346
30
  9
$CSHADOW
280
     0
  9
$SHADOWPLANELOCATION
 40
0.0
  0
ENDSEC
  0
SECTION
  2
CLASSES
  0
CLASS
  1
ACDBDICTIONARYWDFLT
  2
AcDbDictionaryWithDefault
  3
ObjectDBX Classes
 90
        0
 91
        1
280
     0
281
     0
  0
CLASS
  1
MATERIAL
  2
AcDbMaterial
  3
ObjectDBX Classes
 90
     1153
 91
        3
280
     0
281
     0
  0
CLASS
  1
VISUALSTYLE
  2
AcDbVisualStyle
  3
ObjectDBX Classes
 90
     4095
 91
       24
280
     0
281
     0
  0
CLASS
  1
SCALE
  2
AcDbScale
  3
ObjectDBX Classes
 90
     1153
 91
       17
280
     0
281
     0
  0
CLASS
  1
TABLESTYLE
  2
AcDbTableStyle
  3
ObjectDBX Classes
 90
     4095
 91
        1
280
     0
281
     0
  0
CLASS
  1
MLEADERSTYLE
  2
AcDbMLeaderStyle
  3
ACDB_MLEADERSTYLE_CLASS
 90
     4095
 91
        1
280
     0
281
     0
  0
CLASS
  1
ACDBSECTIONVIEWSTYLE
  2
AcDbSectionViewStyle
  3
ObjectDBX Classes
 90
     1025
 91
        1
280
     0
281
     0
  0
CLASS
  1
ACDBDETAILVIEWSTYLE
  2
AcDbDetailViewStyle
  3
ObjectDBX Classes
 90
     1025
 91
        1
280
     0
281
     0
  0
CLASS
  1
DICTIONARYVAR
  2
AcDbDictionaryVar
  3
ObjectDBX Classes
 90
        0
 91
        5
280
     0
281
     0
  0
CLASS
  1
CELLSTYLEMAP
  2
AcDbCellStyleMap
  3
ObjectDBX Classes
 90
     1152
 91
        1
280
     0
281
     0
  0
ENDSEC
  0
SECTION
  2
TABLES
  0
TABLE
  2
VPORT
  5
8
330
0
100
AcDbSymbolTable
 70
     1
  0
VPORT
  5
57
330
8
100
AcDbSymbolTableRecord
100
AcDbViewportTableRecord
  2
*Active
 70
     0
 10
0.0
 20
0.0
 11
1.0
 21
1.0
 12
0.0
 22
0.0
 13
0.0
 23
0.0
 14
1.0
 24
1.0
 15
0.0
 25
0.0
 16
0.0
 26
0.0
 36
1.0
 17
338.666666582
 27
190.4999999523751
 37
0.0
 40
388.8749999028449
 41
1.776612021857632
 42
50.0
 43
0.0
 44
0.0
 50
0.0
 51
0.0
 71
     0
 72
   100
 73
     1
 74
     1
 75
     0
 76
     0
 77
     0
 78
     0
281
     0
 65
     1
110
0.0
120
0.0
130
0.0
111
1.0
121
0.0
131
0.0
112
0.0
122
1.0
132
0.0
 79
     0
146
0.0
 60
     3
 61
     5
292
     1
282
     1
141
0.0
142
0.0
 63
   250
421
  3355443
  0
ENDTAB
  0
TABLE
  2
LTYPE
  5
5
330
0
100
AcDbSymbolTable
 70
     1
  0
LTYPE
  5
5B
330
5
100
AcDbSymbolTableRecord
100
AcDbLinetypeTableRecord
  2
ByBlock
 70
     0
  3

 72
    65
 73
     0
 40
0.0
  0
LTYPE
  5
5C
330
5
100
AcDbSymbolTableRecord
100
AcDbLinetypeTableRecord
  2
ByLayer
 70
     0
  3

 72
    65
 73
     0
 40
0.0
  0
LTYPE
  5
5D
330
5
100
AcDbSymbolTableRecord
100
AcDbLinetypeTableRecord
  2
Continuous
 70
     0
  3
Solid line
 72
    65
 73
     0
 40
0.0
  0
ENDTAB
  0
TABLE
  2
LAYER
  5
2
330
0
100
AcDbSymbolTable
 70
     5
  0
LAYER
  5
54
330
2
100
AcDbSymbolTableRecord
100
AcDbLayerTableRecord
  2
0
 70
     0
 62
     7
  6
Continuous
370
    -3
390
F
347
21
348
0
  0
LAYER
  5
78
330
2
100
AcDbSymbolTableRecord
100
AcDbLayerTableRecord
  2
FLAME
 70
     0
 62
     7
  6
Continuous
370
     0
390
F
347
21
348
0
  0
LAYER
  5
80
330
2
100
AcDbSymbolTableRecord
100
AcDbLayerTableRecord
  2
SPEC
 70
     0
 62
     7
  6
Continuous
370
     0
390
F
347
21
348
0
  0
LAYER
  5
83
330
2
100
AcDbSymbolTableRecord
100
AcDbLayerTableRecord
  2
★新規金具
 70
     0
 62
     7
  6
Continuous
370
     0
390
F
347
21
348
0
  0
LAYER
  5
92
330
2
100
AcDbSymbolTableRecord
100
AcDbLayerTableRecord
  2
SHADE
 70
     0
 62
     7
  6
Continuous
370
     0
390
F
347
21
348
0
  0
ENDTAB
  0
TABLE
  2
STYLE
  5
3
330
0
100
AcDbSymbolTable
 70
     2
  0
STYLE
  5
55
330
3
100
AcDbSymbolTableRecord
100
AcDbTextStyleTableRecord
  2
Standard
 70
     0
 40
0.0
 41
1.0
 50
0.0
 71
     0
 42
0.2
  3
txt
  4

  0
STYLE
  5
5A
330
3
100
AcDbSymbolTableRecord
100
AcDbTextStyleTableRecord
  2
Annotative
 70
     0
 40
0.0
 41
1.0
 50
0.0
 71
     0
 42
0.2
  3
txt
  4

1001
AcadAnnotative
1000
AnnotativeData
1002
{
1070
     1
1070
     1
1002
}
  0
ENDTAB
  0
TABLE
  2
VIEW
  5
6
330
0
100
AcDbSymbolTable
 70
     0
  0
ENDTAB
  0
TABLE
  2
UCS
  5
7
330
0
100
AcDbSymbolTable
 70
     0
  0
ENDTAB
  0
TABLE
  2
APPID
  5
9
330
0
100
AcDbSymbolTable
 70
     2
  0
APPID
  5
56
330
9
100
AcDbSymbolTableRecord
100
AcDbRegAppTableRecord
  2
ACAD
 70
     0
  0
APPID
  5
5E
330
9
100
AcDbSymbolTableRecord
100
AcDbRegAppTableRecord
  2
AcadAnnotative
 70
     0
  0
ENDTAB
  0
TABLE
  2
DIMSTYLE
  5
A
330
0
100
AcDbSymbolTable
 70
     2
100
AcDbDimStyleTable
 71
     0
  0
DIMSTYLE
105
58
330
A
100
AcDbSymbolTableRecord
100
AcDbDimStyleTableRecord
  2
Standard
 70
     0
340
55
  0
DIMSTYLE
105
59
330
A
100
AcDbSymbolTableRecord
100
AcDbDimStyleTableRecord
  2
Annotative
 70
     0
340
55
1001
AcadAnnotative
1000
AnnotativeData
1002
{
1070
     1
1070
     1
1002
}
  0
ENDTAB
  0
TABLE
  2
BLOCK_RECORD
  5
1
330
0
100
AcDbSymbolTable
 70
     1
  0
BLOCK_RECORD
  5
70
330
1
100
AcDbSymbolTableRecord
100
AcDbBlockTableRecord
  2
*Model_Space
340
73
 70
     0
280
     1
281
     0
  0
BLOCK_RECORD
  5
6C
330
1
100
AcDbSymbolTableRecord
100
AcDbBlockTableRecord
  2
*Paper_Space
340
6F
 70
     0
280
     1
281
     0
  0
BLOCK_RECORD
  5
74
330
1
100
AcDbSymbolTableRecord
100
AcDbBlockTableRecord
  2
*Paper_Space0
340
77
 70
     0
280
     1
281
     0
  0
ENDTAB
  0
ENDSEC
  0
SECTION
  2
BLOCKS
  0
BLOCK
  5
71
330
70
100
AcDbEntity
  8
0
100
AcDbBlockBegin
  2
*Model_Space
 70
     0
 10
0.0
 20
0.0
 30
0.0
  3
*Model_Space
  1

  0
ENDBLK
  5
72
330
70
100
AcDbEntity
  8
0
100
AcDbBlockEnd
  0
BLOCK
  5
6D
330
6C
100
AcDbEntity
 67
     1
  8
0
100
AcDbBlockBegin
  2
*Paper_Space
 70
     0
 10
0.0
 20
0.0
 30
0.0
  3
*Paper_Space
  1

  0
ENDBLK
  5
6E
330
6C
100
AcDbEntity
 67
     1
  8
0
100
AcDbBlockEnd
  0
BLOCK
  5
75
330
74
100
AcDbEntity
 67
     1
  8
0
100
AcDbBlockBegin
  2
*Paper_Space0
 70
     0
 10
0.0
 20
0.0
 30
0.0
  3
*Paper_Space0
  1

  0
ENDBLK
  5
76
330
74
100
AcDbEntity
 67
     1
  8
0
100
AcDbBlockEnd
  0
ENDSEC
  0
SECTION
  2
ENTITIES
  0
LINE
  5
79
330
70
100
AcDbEntity
  8
FLAME
 62
     2
420
 16776960
370
    25
100
AcDbLine
 10
501.9523808268929
 20
380.9999999047501
 30
0.0
 11
501.9523808268929
 21
0.0
 31
0.0
  0
LINE
  5
7A
330
70
100
AcDbEntity
  8
FLAME
 62
     2
420
 16776960
370
    25
100
AcDbLine
 10
175.380952337107
 20
0.0
 30
0.0
 11
175.380952337107
 21
380.9999999047501
 31
0.0
  0
LINE
  5
7B
330
70
100
AcDbEntity
  8
FLAME
 62
     2
420
 16776960
370
    25
100
AcDbLine
 10
501.9523808268929
 20
0.0
 30
0.0
 11
175.380952337107
 21
0.0
 31
0.0
  0
LINE
  5
7C
330
70
100
AcDbEntity
  8
FLAME
 62
     2
420
 16776960
370
    25
100
AcDbLine
 10
501.9523808268929
 20
18.14285713832115
 30
0.0
 11
175.380952337107
 21
18.14285713832115
 31
0.0
  0
LINE
  5
7D
330
70
100
AcDbEntity
  8
FLAME
 62
     2
420
 16776960
370
    25
100
AcDbLine
 10
501.9523808268929
 20
36.28571427664295
 30
0.0
 11
175.380952337107
 21
36.28571427664295
 31
0.0
  0
LINE
  5
7E
330
70
100
AcDbEntity
  8
FLAME
 62
     2
420
 16776960
370
    25
100
AcDbLine
 10
501.9523808268929
 20
54.42857141496411
 30
0.0
 11
175.380952337107
 21
54.42857141496411
 31
0.0
  0
LINE
  5
7F
330
70
100
AcDbEntity
  8
FLAME
 62
     2
420
 16776960
370
    25
100
AcDbLine
 10
501.9523808268929
 20
380.9999999047501
 30
0.0
 11
175.380952337107
 21
380.9999999047501
 31
0.0
  0
MTEXT
  5
81
330
70
100
AcDbEntity
  8
SPEC
100
AcDbMText
 10
187.6349293557605
 20
41.1836753530328
 30
0.0
 40
0.2
 41
0.0
 46
0.0
 71
     7
 72
     1
  1
\C9;\c12632256;\FKozuka Gothic Pr6N R|b0|i0|c128;\H9.071429;\W1.000000;KC236/KC236GO
 73
     1
 44
1.0
  0
MTEXT
  5
82
330
70
100
AcDbEntity
  8
SPEC
100
AcDbMText
 10
187.6349293557605
 20
23.04081744571685
 30
0.0
 40
0.2
 41
0.0
 46
0.0
 71
     7
 72
     1
  1
\C9;\c12632256;\FKozuka Gothic Pr6N R|b0|i0|c128;\H7.992533;\W1.000000;E26 LED電球(100W相当 電球色 全方向/広配光タイプ）ｘ2灯
 73
     1
 44
1.0
  0
LINE
  5
84
330
70
100
AcDbEntity
  8
★新規金具
 62
     2
420
 16776960
370
    25
100
AcDbLine
 10
212.7222589229555
 20
241.52198002317
 30
0.0
 11
212.7222589229555
 21
231.3619801273105
 31
0.0
  0
LINE
  5
85
330
70
100
AcDbEntity
  8
★新規金具
 62
     2
420
 16776960
370
    25
100
AcDbLine
 10
325.6796863365658
 20
177.8313783784415
 30
0.0
 11
325.6795439923408
 21
179.4279495366218
 31
0.0
  0
SPLINE
  5
86
330
70
100
AcDbEntity
  8
★新規金具
 62
     2
420
 16776960
370
    25
100
AcDbSpline
210
0.0
220
0.0
230
1.0
 70
     8
 71
     3
 72
    11
 73
     7
 74
     0
 42
0.0000000001
 43
0.0000000001
 40
0.0
 40
0.0
 40
0.0
 40
0.0
 40
1.0
 40
1.0
 40
1.0
 40
2.0
 40
2.0
 40
2.0
 40
2.0
 10
339.7222576212074
 20
246.0424284151836
 30
0.0
 10
269.582095111635
 20
246.0424284151836
 30
0.0
 10
212.7222589229603
 20
239.4697678373826
 30
0.0
 10
212.7222589229603
 20
231.3619801273105
 30
0.0
 10
212.7222589229603
 20
230.4438533024614
 30
0.0
 10
213.4673675641852
 20
229.5277508952269
 30
0.0
 10
214.9477919025605
 20
228.6257132164338
 30
0.0
  0
SPLINE
  5
87
330
70
100
AcDbEntity
  8
★新規金具
 62
     2
420
 16776960
370
    25
100
AcDbSpline
210
0.0
220
0.0
230
1.0
 70
     8
 71
     3
 72
     8
 73
     4
 74
     0
 42
0.0000000001
 43
0.0000000001
 40
0.0
 40
0.0
 40
0.0
 40
0.0
 40
1.0
 40
1.0
 40
1.0
 40
1.0
 10
339.7222576212074
 20
256.2024283110434
 30
0.0
 10
269.582095111635
 20
256.2024283110434
 30
0.0
 10
212.7222589229603
 20
249.6297677332421
 30
0.0
 10
212.7222589229603
 20
241.52198002317
 30
0.0
  0
SPLINE
  5
88
330
70
100
AcDbEntity
  8
★新規金具
 62
     8
420
  8421504
370
    25
100
AcDbSpline
210
0.0
220
0.0
230
1.0
 70
     8
 71
     3
 72
     8
 73
     4
 74
     0
 42
0.0000000001
 43
0.0000000001
 40
0.0
 40
0.0
 40
0.0
 40
0.0
 40
1.0
 40
1.0
 40
1.0
 40
1.0
 10
339.7222576212074
 20
243.9188700343266
 30
0.0
 10
273.1460294383996
 20
243.9188700343266
 30
0.0
 10
217.8700640476053
 20
237.9758638901841
 30
0.0
 10
213.0548668359594
 20
230.3002009368781
 30
0.0
  0
SPLINE
  5
89
330
70
100
AcDbEntity
  8
★新規金具
 62
     2
420
 16776960
370
    25
100
AcDbSpline
210
0.0
220
0.0
230
1.0
 70
     8
 71
     3
 72
    11
 73
     7
 74
     0
 42
0.0000000001
 43
0.0000000001
 40
0.0
 40
0.0
 40
0.0
 40
0.0
 40
1.0
 40
1.0
 40
1.0
 40
2.0
 40
2.0
 40
2.0
 40
2.0
 10
339.7223336746595
 20
180.37069141876
 30
0.0
 10
331.9668357664957
 20
180.3700301733952
 30
0.0
 10
325.6797284497317
 20
179.2326049550093
 30
0.0
 10
325.6796864465655
 20
177.8301810877948
 30
0.0
 10
325.6796444433993
 20
176.4277572205798
 30
0.0
 10
331.9666836595754
 20
175.2914040927569
 30
0.0
 10
339.7221815677387
 20
175.2920653381224
 30
0.0
  0
SPLINE
  5
8A
330
70
100
AcDbEntity
  8
★新規金具
 62
     2
420
 16776960
370
    25
100
AcDbSpline
210
0.0
220
0.0
230
1.0
 70
     8
 71
     3
 72
    11
 73
     7
 74
     0
 42
0.0000000001
 43
0.0000000001
 40
0.0
 40
0.0
 40
0.0
 40
0.0
 40
1.0
 40
1.0
 40
1.0
 40
2.0
 40
2.0
 40
2.0
 40
2.0
 10
339.7221912188113
 20
181.9685145593259
 30
0.0
 10
331.9666933106478
 20
181.9678533139605
 30
0.0
 10
325.6795859938839
 20
180.8304280955745
 30
0.0
 10
325.6795439907177
 20
179.4280042283602
 30
0.0
 10
325.6795439901716
 20
179.4279859977835
 30
0.0
 10
325.6795439907112
 20
179.4279677671985
 30
0.0
 10
325.6795439923367
 20
179.4279495366218
 30
0.0
  0
LINE
  5
8B
330
70
100
AcDbEntity
  8
★新規金具
 62
     2
420
 16776960
370
    25
100
AcDbLine
 10
466.7222563194497
 20
241.52198002317
 30
0.0
 11
466.7222563194497
 21
231.3619801273105
 31
0.0
  0
LINE
  5
8C
330
70
100
AcDbEntity
  8
★新規金具
 62
     2
420
 16776960
370
    25
100
AcDbLine
 10
353.7648289058406
 20
177.8313783784415
 30
0.0
 11
353.7649712500743
 21
179.4279495366218
 31
0.0
  0
SPLINE
  5
8D
330
70
100
AcDbEntity
  8
★新規金具
 62
     2
420
 16776960
370
    25
100
AcDbSpline
210
0.0
220
0.0
230
1.0
 70
     8
 71
     3
 72
    11
 73
     7
 74
     0
 42
0.0000000001
 43
0.0000000001
 40
0.0
 40
0.0
 40
0.0
 40
0.0
 40
1.0
 40
1.0
 40
1.0
 40
2.0
 40
2.0
 40
2.0
 40
2.0
 10
339.7222576212074
 20
246.0424284151836
 30
0.0
 10
347.6649377951476
 20
246.0424284151836
 30
0.0
 10
355.5901048094527
 20
245.9562982656683
 30
0.0
 10
363.393598393986
 20
245.7851699730195
 30
0.0
 10
432.3046329786797
 20
244.2739714866757
 30
0.0
 10
477.5700438567078
 20
236.5914210121332
 30
0.0
 10
464.4967233398547
 20
228.6257132164338
 30
0.0
  0
SPLINE
  5
8E
330
70
100
AcDbEntity
  8
★新規金具
 62
     2
420
 16776960
370
    25
100
AcDbSpline
210
0.0
220
0.0
230
1.0
 70
     8
 71
     3
 72
     8
 73
     4
 74
     0
 42
0.0000000001
 43
0.0000000001
 40
0.0
 40
0.0
 40
0.0
 40
0.0
 40
1.0
 40
1.0
 40
1.0
 40
1.0
 10
339.7222576212074
 20
256.2024283110434
 30
0.0
 10
409.8624201307804
 20
256.2024283110434
 30
0.0
 10
466.7222563194548
 20
249.6297677332421
 30
0.0
 10
466.7222563194548
 20
241.52198002317
 30
0.0
  0
SPLINE
  5
8F
330
70
100
AcDbEntity
  8
★新規金具
 62
     8
420
  8421504
370
    25
100
AcDbSpline
210
0.0
220
0.0
230
1.0
 70
     8
 71
     3
 72
     8
 73
     4
 74
     0
 42
0.0000000001
 43
0.0000000001
 40
0.0
 40
0.0
 40
0.0
 40
0.0
 40
1.0
 40
1.0
 40
1.0
 40
1.0
 10
339.7222576212074
 20
243.9188700343266
 30
0.0
 10
406.2984858040155
 20
243.9188700343266
 30
0.0
 10
461.5744511948094
 20
237.9758638901841
 30
0.0
 10
466.3896484064557
 20
230.3002009368781
 30
0.0
  0
SPLINE
  5
90
330
70
100
AcDbEntity
  8
★新規金具
 62
     2
420
 16776960
370
    25
100
AcDbSpline
210
0.0
220
0.0
230
1.0
 70
     8
 71
     3
 72
    11
 73
     7
 74
     0
 42
0.0000000001
 43
0.0000000001
 40
0.0
 40
0.0
 40
0.0
 40
0.0
 40
1.0
 40
1.0
 40
1.0
 40
2.0
 40
2.0
 40
2.0
 40
2.0
 10
339.7221815677527
 20
180.37069141876
 30
0.0
 10
347.4776794759162
 20
180.3700301733945
 30
0.0
 10
353.7647867926779
 20
179.232604955008
 30
0.0
 10
353.7648287958413
 20
177.8301810877936
 30
0.0
 10
353.7648707990046
 20
176.4277572205792
 30
0.0
 10
347.4778315828262
 20
175.2914040927563
 30
0.0
 10
339.7223336746627
 20
175.2920653381224
 30
0.0
  0
SPLINE
  5
91
330
70
100
AcDbEntity
  8
★新規金具
 62
     2
420
 16776960
370
    25
100
AcDbSpline
210
0.0
220
0.0
230
1.0
 70
     8
 71
     3
 72
    11
 73
     7
 74
     0
 42
0.0000000001
 43
0.0000000001
 40
0.0
 40
0.0
 40
0.0
 40
0.0
 40
1.0
 40
1.0
 40
1.0
 40
2.0
 40
2.0
 40
2.0
 40
2.0
 10
339.7223240236022
 20
181.9685145593259
 30
0.0
 10
339.7224248399135
 20
181.9685145507304
 30
0.0
 10
339.7225256562677
 20
181.9685145419378
 30
0.0
 10
339.7226264725791
 20
181.9685145329495
 30
0.0
 10
347.4781243798487
 20
181.9678230821712
 30
0.0
 10
353.7650962848684
 20
180.830373389269
 30
0.0
 10
353.7649712500768
 20
179.4279495366218
 30
0.0
  0
LINE
  5
93
330
70
100
AcDbEntity
  8
SHADE
 62
     4
420
    65535
370
    25
100
AcDbLine
 10
328.6549231093137
 20
176.2674457699407
 30
0.0
 11
295.173370248737
 21
176.2076949783564
 31
0.0
  0
SPLINE
  5
94
330
70
100
AcDbEntity
  8
SHADE
 62
     4
420
    65535
370
    25
100
AcDbSpline
210
0.0
220
0.0
230
1.0
 70
     8
 71
     3
 72
     8
 73
     4
 74
     0
 42
0.0000000001
 43
0.0000000001
 40
0.0
 40
0.0
 40
0.0
 40
0.0
 40
1.0
 40
1.0
 40
1.0
 40
1.0
 10
214.5677078370284
 20
231.7319828685531
 30
0.0
 10
215.1748359372193
 20
225.7672937818222
 30
0.0
 10
216.476355988695
 20
219.8938960499797
 30
0.0
 10
218.4458299841556
 20
214.2310970413078
 30
0.0
  0
SPLINE
  5
95
330
70
100
AcDbEntity
  8
SHADE
 62
     4
420
    65535
370
    25
100
AcDbSpline
210
0.0
220
0.0
230
1.0
 70
     8
 71
     3
 72
     8
 73
     4
 74
     0
 42
0.0000000001
 43
0.0000000001
 40
0.0
 40
0.0
 40
0.0
 40
0.0
 40
1.0
 40
1.0
 40
1.0
 40
1.0
 10
218.4458299841794
 20
214.2310970412517
 30
0.0
 10
220.1309096847312
 20
209.7441174627937
 30
0.0
 10
222.4503158095484
 20
205.5217794915648
 30
0.0
 10
225.33331934417
 20
201.6928410023655
 30
0.0
  0
SPLINE
  5
96
330
70
100
AcDbEntity
  8
SHADE
 62
     4
420
    65535
370
    25
100
AcDbSpline
210
0.0
220
0.0
230
1.0
 70
     8
 71
     3
 72
     8
 73
     4
 74
     0
 42
0.0000000001
 43
0.0000000001
 40
0.0
 40
0.0
 40
0.0
 40
0.0
 40
1.0
 40
1.0
 40
1.0
 40
1.0
 10
225.333319344119
 20
201.6928410024352
 30
0.0
 10
230.8707065352644
 20
194.7836050015377
 30
0.0
 10
238.0116028968446
 20
189.3311614130371
 30
0.0
 10
246.1354533258154
 20
185.809336143596
 30
0.0
  0
SPLINE
  5
97
330
70
100
AcDbEntity
  8
SHADE
 62
     4
420
    65535
370
    25
100
AcDbSpline
210
0.0
220
0.0
230
1.0
 70
     8
 71
     3
 72
     8
 73
     4
 74
     0
 42
0.0000000001
 43
0.0000000001
 40
0.0
 40
0.0
 40
0.0
 40
0.0
 40
1.0
 40
1.0
 40
1.0
 40
1.0
 10
246.1354533257428
 20
185.8093361436255
 30
0.0
 10
253.5472678715191
 20
182.2566821425262
 30
0.0
 10
261.3840077956524
 20
179.6690126841637
 30
0.0
 10
269.4539917514205
 20
178.109620409541
 30
0.0
  0
SPLINE
  5
98
330
70
100
AcDbEntity
  8
SHADE
 62
     4
420
    65535
370
    25
100
AcDbSpline
210
0.0
220
0.0
230
1.0
 70
     8
 71
     3
 72
     8
 73
     4
 74
     0
 42
0.0000000001
 43
0.0000000001
 40
0.0
 40
0.0
 40
0.0
 40
0.0
 40
1.0
 40
1.0
 40
1.0
 40
1.0
 10
269.4539917509479
 20
178.1096204096225
 30
0.0
 10
277.9544068236666
 20
176.7194269453115
 30
0.0
 10
286.5610268829607
 20
176.0829774316263
 30
0.0
 10
295.1734678706714
 20
176.2076951525687
 30
0.0
  0
SPLINE
  5
99
330
70
100
AcDbEntity
  8
SHADE
 62
     4
420
    65535
370
    25
100
AcDbSpline
210
0.0
220
0.0
230
1.0
 70
     8
 71
     3
 72
     8
 73
     4
 74
     0
 42
0.0000000001
 43
0.0000000001
 40
0.0
 40
0.0
 40
0.0
 40
0.0
 40
1.0
 40
1.0
 40
1.0
 40
1.0
 10
215.200692314407
 20
232.1245248332902
 30
0.0
 10
215.7899522687473
 20
226.0254681775927
 30
0.0
 10
217.1049370070988
 20
220.0185216925794
 30
0.0
 10
219.1177547556915
 20
214.2310970413078
 30
0.0
  0
SPLINE
  5
9A
330
70
100
AcDbEntity
  8
SHADE
 62
     4
420
    65535
370
    25
100
AcDbSpline
210
0.0
220
0.0
230
1.0
 70
     8
 71
     3
 72
     8
 73
     4
 74
     0
 42
0.0000000001
 43
0.0000000001
 40
0.0
 40
0.0
 40
0.0
 40
0.0
 40
1.0
 40
1.0
 40
1.0
 40
1.0
 10
219.1177547557152
 20
214.2310970412517
 30
0.0
 10
220.802834456267
 20
209.7441174627937
 30
0.0
 10
223.1222405810842
 20
205.5217794915648
 30
0.0
 10
226.0052441157059
 20
201.6928410023655
 30
0.0
  0
SPLINE
  5
9B
330
70
100
AcDbEntity
  8
SHADE
 62
     4
420
    65535
370
    25
100
AcDbSpline
210
0.0
220
0.0
230
1.0
 70
     8
 71
     3
 72
     8
 73
     4
 74
     0
 42
0.0000000001
 43
0.0000000001
 40
0.0
 40
0.0
 40
0.0
 40
0.0
 40
1.0
 40
1.0
 40
1.0
 40
1.0
 10
226.0052441156465
 20
201.6928410024352
 30
0.0
 10
231.5426313067919
 20
194.7836050015377
 30
0.0
 10
238.6835276683721
 20
189.3311614130371
 30
0.0
 10
246.8073780973428
 20
185.809336143596
 30
0.0
  0
SPLINE
  5
9C
330
70
100
AcDbEntity
  8
SHADE
 62
     4
420
    65535
370
    25
100
AcDbSpline
210
0.0
220
0.0
230
1.0
 70
     8
 71
     3
 72
     8
 73
     4
 74
     0
 42
0.0000000001
 43
0.0000000001
 40
0.0
 40
0.0
 40
0.0
 40
0.0
 40
1.0
 40
1.0
 40
1.0
 40
1.0
 10
246.8073780972784
 20
185.8093361436255
 30
0.0
 10
254.2191926430546
 20
182.2566821425262
 30
0.0
 10
262.0559325671879
 20
179.6690126841637
 30
0.0
 10
270.125916522956
 20
178.109620409541
 30
0.0
  0
SPLINE
  5
9D
330
70
100
AcDbEntity
  8
SHADE
 62
     4
420
    65535
370
    25
100
AcDbSpline
210
0.0
220
0.0
230
1.0
 70
     8
 71
     3
 72
     8
 73
     4
 74
     0
 42
0.0000000001
 43
0.0000000001
 40
0.0
 40
0.0
 40
0.0
 40
0.0
 40
1.0
 40
1.0
 40
1.0
 40
1.0
 10
270.1259165224754
 20
178.1096204096225
 30
0.0
 10
278.626331595194
 20
176.7194269453115
 30
0.0
 10
287.2329516544882
 20
176.0829774316263
 30
0.0
 10
295.8453926421989
 20
176.2076951525687
 30
0.0
  0
SPLINE
  5
9E
330
70
100
AcDbEntity
  8
SHADE
 62
     4
420
    65535
370
    25
100
AcDbSpline
210
0.0
220
0.0
230
1.0
 70
     8
 71
     3
 72
    38
 73
    34
 74
     0
 42
0.0000000001
 43
0.0000000001
 40
0.0
 40
0.0
 40
0.0
 40
0.0
 40
1.0
 40
1.0
 40
1.0
 40
2.0
 40
2.0
 40
2.0
 40
3.0
 40
3.0
 40
3.0
 40
4.0
 40
4.0
 40
4.0
 40
5.0
 40
5.0
 40
5.0
 40
6.0
 40
6.0
 40
6.0
 40
7.0
 40
7.0
 40
7.0
 40
8.0
 40
8.0
 40
8.0
 40
9.0
 40
9.0
 40
9.0
 40
10.0
 40
10.0
 40
10.0
 40
11.0
 40
11.0
 40
11.0
 40
11.0
 10
216.9968973288153
 20
233.0151576405618
 30
0.0
 10
217.0758537866112
 20
232.4640984694787
 30
0.0
 10
217.1548102443996
 20
231.9130392983955
 30
0.0
 10
217.2337667021871
 20
231.3619801273115
 30
0.0
 10
217.6496020712512
 20
228.4597489458493
 30
0.0
 10
218.0654374403135
 20
225.5575177643866
 30
0.0
 10
218.6638442239331
 20
222.6867814702763
 30
0.0
 10
219.2622510075549
 20
219.8160451761535
 30
0.0
 10
220.0432292057358
 20
216.9768037693828
 30
0.0
 10
221.0733243119556
 20
214.2310970412488
 30
0.0
 10
221.9134782731956
 20
211.9916762633844
 30
0.0
 10
222.91934894949
 20
209.8144763111129
 30
0.0
 10
224.0678475541853
 20
207.71520361332
 30
0.0
 10
225.21634615888
 20
205.6159309155278
 30
0.0
 10
226.507472691976
 20
203.5945854722146
 30
0.0
 10
227.9608136719701
 20
201.692841002338
 30
0.0
 10
230.6327081492133
 20
198.1965792054596
 30
0.0
 10
233.8528708748461
 20
195.1045564727708
 30
0.0
 10
237.3919569485492
 20
192.4808095487253
 30
0.0
 10
240.9310430222908
 20
189.8570626246509
 30
0.0
 10
244.7890524441094
 20
187.7015915092302
 30
0.0
 10
248.7629476535936
 20
185.8093361435947
 30
0.0
 10
252.4715922678272
 20
184.0433855332783
 30
0.0
 10
256.2811686295562
 20
182.5066849986563
 30
0.0
 10
260.1754033376206
 20
181.2120051291525
 30
0.0
 10
264.0696380456124
 20
179.9173252596725
 30
0.0
 10
268.0485310999356
 20
178.8646660553018
 30
0.0
 10
272.0814860789087
 20
178.1096204095917
 30
0.0
 10
276.3123533120105
 20
177.3175218370599
 30
0.0
 10
280.6027187070549
 20
176.8529635773151
 30
0.0
 10
284.8992144206745
 20
176.5905660866095
 30
0.0
 10
289.1957101342937
 20
176.328168595904
 30
0.0
 10
293.4983361664878
 20
176.2679318742382
 30
0.0
 10
297.8009621986852
 20
176.2076951525719
 30
0.0
  0
SPLINE
  5
9F
330
70
100
AcDbEntity
  8
SHADE
 62
     4
420
    65535
370
    25
100
AcDbSpline
210
0.0
220
0.0
230
1.0
 70
     8
 71
     3
 72
    38
 73
    34
 74
     0
 42
0.0000000001
 43
0.0000000001
 40
0.0
 40
0.0
 40
0.0
 40
0.0
 40
1.0
 40
1.0
 40
1.0
 40
2.0
 40
2.0
 40
2.0
 40
3.0
 40
3.0
 40
3.0
 40
4.0
 40
4.0
 40
4.0
 40
5.0
 40
5.0
 40
5.0
 40
6.0
 40
6.0
 40
6.0
 40
7.0
 40
7.0
 40
7.0
 40
8.0
 40
8.0
 40
8.0
 40
9.0
 40
9.0
 40
9.0
 40
10.0
 40
10.0
 40
10.0
 40
11.0
 40
11.0
 40
11.0
 40
11.0
 10
219.7616719340061
 20
234.0580955534586
 30
0.0
 10
219.8904395479796
 20
233.1593904114096
 30
0.0
 10
220.019207161946
 20
232.2606852693605
 30
0.0
 10
220.1479747759111
 20
231.3619801273115
 30
0.0
 10
220.5638101449742
 20
228.4597489458493
 30
0.0
 10
220.9796455140367
 20
225.5575177643866
 30
0.0
 10
221.5780522976567
 20
222.6867814702763
 30
0.0
 10
222.1764590812788
 20
219.8160451761535
 30
0.0
 10
222.9574372794597
 20
216.9768037693828
 30
0.0
 10
223.9875323856799
 20
214.2310970412488
 30
0.0
 10
224.8276863469199
 20
211.9916762633844
 30
0.0
 10
225.8335570232143
 20
209.8144763111129
 30
0.0
 10
226.9820556279096
 20
207.71520361332
 30
0.0
 10
228.1305542326046
 20
205.6159309155278
 30
0.0
 10
229.4216807657006
 20
203.5945854722146
 30
0.0
 10
230.8750217456943
 20
201.692841002338
 30
0.0
 10
233.5469162229375
 20
198.1965792054596
 30
0.0
 10
236.7670789485707
 20
195.1045564727708
 30
0.0
 10
240.3061650222735
 20
192.4808095487253
 30
0.0
 10
243.8452510960151
 20
189.8570626246509
 30
0.0
 10
247.7032605178333
 20
187.7015915092302
 30
0.0
 10
251.6771557273175
 20
185.8093361435947
 30
0.0
 10
255.3858003415508
 20
184.0433855332783
 30
0.0
 10
259.1953767032799
 20
182.5066849986563
 30
0.0
 10
263.0896114113442
 20
181.2120051291525
 30
0.0
 10
266.983846119336
 20
179.9173252596725
 30
0.0
 10
270.9627391736596
 20
178.8646660553018
 30
0.0
 10
274.9956941526323
 20
178.1096204095917
 30
0.0
 10
279.2265613857344
 20
177.3175218370599
 30
0.0
 10
283.5169267807788
 20
176.8529635773151
 30
0.0
 10
287.8134224943984
 20
176.5905660866095
 30
0.0
 10
292.1099182080173
 20
176.328168595904
 30
0.0
 10
296.4125442402118
 20
176.2679318742382
 30
0.0
 10
300.7151702724094
 20
176.2076951525719
 30
0.0
  0
SPLINE
  5
A0
330
70
100
AcDbEntity
  8
SHADE
 62
     4
420
    65535
370
    25
100
AcDbSpline
210
0.0
220
0.0
230
1.0
 70
     8
 71
     3
 72
    38
 73
    34
 74
     0
 42
0.0000000001
 43
0.0000000001
 40
0.0
 40
0.0
 40
0.0
 40
0.0
 40
1.0
 40
1.0
 40
1.0
 40
2.0
 40
2.0
 40
2.0
 40
3.0
 40
3.0
 40
3.0
 40
4.0
 40
4.0
 40
4.0
 40
5.0
 40
5.0
 40
5.0
 40
6.0
 40
6.0
 40
6.0
 40
7.0
 40
7.0
 40
7.0
 40
8.0
 40
8.0
 40
8.0
 40
9.0
 40
9.0
 40
9.0
 40
10.0
 40
10.0
 40
10.0
 40
11.0
 40
11.0
 40
11.0
 40
11.0
 10
223.4559483554602
 20
235.1452058262084
 30
0.0
 10
223.6366368162078
 20
233.8841305932426
 30
0.0
 10
223.8173252769541
 20
232.6230553602769
 30
0.0
 10
223.998013737701
 20
231.3619801273115
 30
0.0
 10
224.4138491067642
 20
228.4597489458493
 30
0.0
 10
224.8296844758261
 20
225.5575177643866
 30
0.0
 10
225.4280912594453
 20
222.6867814702766
 30
0.0
 10
226.0264980430672
 20
219.8160451761538
 30
0.0
 10
226.8074762412481
 20
216.9768037693835
 30
0.0
 10
227.8375713474683
 20
214.2310970412488
 30
0.0
 10
228.677725308708
 20
211.9916762633847
 30
0.0
 10
229.6835959850023
 20
209.8144763111129
 30
0.0
 10
230.8320945896964
 20
207.7152036133203
 30
0.0
 10
231.9805931943904
 20
205.6159309155278
 30
0.0
 10
233.2717197274845
 20
203.5945854722146
 30
0.0
 10
234.7250607074785
 20
201.692841002338
 30
0.0
 10
237.3969551847217
 20
198.1965792054603
 30
0.0
 10
240.6171179103619
 20
195.1045564727714
 30
0.0
 10
244.1562039840667
 20
192.4808095487256
 30
0.0
 10
247.6952900578102
 20
189.8570626246515
 30
0.0
 10
251.5532994796252
 20
187.7015915092302
 30
0.0
 10
255.5271946891081
 20
185.8093361435947
 30
0.0
 10
259.2358393033404
 20
184.0433855332783
 30
0.0
 10
263.0454156650705
 20
182.5066849986563
 30
0.0
 10
266.9396503731348
 20
181.2120051291525
 30
0.0
 10
270.8338850811263
 20
179.9173252596725
 30
0.0
 10
274.8127781354489
 20
178.8646660553018
 30
0.0
 10
278.8457331144207
 20
178.1096204095917
 30
0.0
 10
283.0766003475231
 20
177.3175218370593
 30
0.0
 10
287.3669657425678
 20
176.8529635773145
 30
0.0
 10
291.6634614561877
 20
176.5905660866089
 30
0.0
 10
295.9599571698063
 20
176.328168595904
 30
0.0
 10
300.2625832019998
 20
176.2679318742376
 30
0.0
 10
304.5652092341994
 20
176.2076951525719
 30
0.0
  0
SPLINE
  5
A1
330
70
100
AcDbEntity
  8
SHADE
 62
     4
420
    65535
370
    25
100
AcDbSpline
210
0.0
220
0.0
230
1.0
 70
     8
 71
     3
 72
    38
 73
    34
 74
     0
 42
0.0000000001
 43
0.0000000001
 40
0.0
 40
0.0
 40
0.0
 40
0.0
 40
1.0
 40
1.0
 40
1.0
 40
2.0
 40
2.0
 40
2.0
 40
3.0
 40
3.0
 40
3.0
 40
4.0
 40
4.0
 40
4.0
 40
5.0
 40
5.0
 40
5.0
 40
6.0
 40
6.0
 40
6.0
 40
7.0
 40
7.0
 40
7.0
 40
8.0
 40
8.0
 40
8.0
 40
9.0
 40
9.0
 40
9.0
 40
10.0
 40
10.0
 40
10.0
 40
11.0
 40
11.0
 40
11.0
 40
11.0
 10
228.0560691919538
 20
236.231301996225
 30
0.0
 10
228.2886300655096
 20
234.608194706587
 30
0.0
 10
228.521190939065
 20
232.9850874169492
 30
0.0
 10
228.7537518126125
 20
231.3619801273115
 30
0.0
 10
229.169587181677
 20
228.4597489458484
 30
0.0
 10
229.5854225507388
 20
225.5575177643863
 30
0.0
 10
230.1838293343581
 20
222.6867814702763
 30
0.0
 10
230.7822361179803
 20
219.8160451761538
 30
0.0
 10
231.5632143161614
 20
216.9768037693838
 30
0.0
 10
232.5933094223813
 20
214.2310970412488
 30
0.0
 10
233.4334633836213
 20
211.9916762633847
 30
0.0
 10
234.4393340599154
 20
209.8144763111126
 30
0.0
 10
235.5878326646091
 20
207.7152036133203
 30
0.0
 10
236.7363312693031
 20
205.6159309155275
 30
0.0
 10
238.0274578023972
 20
203.5945854722146
 30
0.0
 10
239.4807987823903
 20
201.6928410023383
 30
0.0
 10
242.1526932596325
 20
198.1965792054606
 30
0.0
 10
245.3728559852689
 20
195.1045564727711
 30
0.0
 10
248.9119420589736
 20
192.4808095487253
 30
0.0
 10
252.4510281327165
 20
189.8570626246509
 30
0.0
 10
256.3090375545347
 20
187.7015915092302
 30
0.0
 10
260.2829327640192
 20
185.8093361435947
 30
0.0
 10
263.9915773782525
 20
184.0433855332783
 30
0.0
 10
267.8011537399822
 20
182.5066849986563
 30
0.0
 10
271.6953884480466
 20
181.2120051291525
 30
0.0
 10
275.5896231560378
 20
179.9173252596725
 30
0.0
 10
279.568516210361
 20
178.8646660553018
 30
0.0
 10
283.6014711893331
 20
178.1096204095917
 30
0.0
 10
287.8323384224349
 20
177.3175218370593
 30
0.0
 10
292.1227038174793
 20
176.8529635773151
 30
0.0
 10
296.4191995310985
 20
176.5905660866095
 30
0.0
 10
300.7156952447184
 20
176.328168595904
 30
0.0
 10
305.0183212769129
 20
176.2679318742382
 30
0.0
 10
309.3209473091105
 20
176.2076951525719
 30
0.0
  0
SPLINE
  5
A2
330
70
100
AcDbEntity
  8
SHADE
 62
     4
420
    65535
370
    25
100
AcDbSpline
210
0.0
220
0.0
230
1.0
 70
     8
 71
     3
 72
    38
 73
    34
 74
     0
 42
0.0000000001
 43
0.0000000001
 40
0.0
 40
0.0
 40
0.0
 40
0.0
 40
1.0
 40
1.0
 40
1.0
 40
2.0
 40
2.0
 40
2.0
 40
3.0
 40
3.0
 40
3.0
 40
4.0
 40
4.0
 40
4.0
 40
5.0
 40
5.0
 40
5.0
 40
6.0
 40
6.0
 40
6.0
 40
7.0
 40
7.0
 40
7.0
 40
8.0
 40
8.0
 40
8.0
 40
9.0
 40
9.0
 40
9.0
 40
10.0
 40
10.0
 40
10.0
 40
11.0
 40
11.0
 40
11.0
 40
11.0
 10
233.528566835209
 20
237.2901944877318
 30
0.0
 10
233.8117008575174
 20
235.3141230342578
 30
0.0
 10
234.0948348798258
 20
233.3380515807851
 30
0.0
 10
234.3779689021343
 20
231.3619801273115
 30
0.0
 10
234.7938042700263
 20
228.4597489043632
 30
0.0
 10
235.2096396379123
 20
225.5575176814156
 30
0.0
 10
235.8080464238802
 20
222.686781470277
 30
0.0
 10
236.406453209851
 20
219.8160452591255
 30
0.0
 10
237.1874314139049
 20
216.9768040597834
 30
0.0
 10
238.2175265119041
 20
214.2310970412491
 30
0.0
 10
239.057680466439
 20
211.9916760265327
 30
0.0
 10
240.0635511266523
 20
209.8144755062449
 30
0.0
 10
241.2120497541328
 20
207.7152036133207
 30
0.0
 10
242.3605483816129
 20
205.6159317203962
 30
0.0
 10
243.6516749763601
 20
203.5945884548353
 30
0.0
 10
245.1050158719143
 20
201.6928410023383
 30
0.0
 10
247.7769101939186
 20
198.1965737220624
 30
0.0
 10
250.9970722705396
 20
195.1045280644424
 30
0.0
 10
254.5361591484938
 20
192.4808095487256
 30
0.0
 10
258.0752460264861
 20
189.8570910329799
 30
0.0
 10
261.9332577058182
 20
187.7016996591482
 30
0.0
 10
265.9071498535356
 20
185.8093361435947
 30
0.0
 10
269.6157916103696
 20
184.0432846021806
 30
0.0
 10
273.4253604818253
 20
182.5063194906977
 30
0.0
 10
277.3196055375629
 20
181.2120051291525
 30
0.0
 10
281.2138505932271
 20
179.9176907676318
 30
0.0
 10
285.1927718331699
 20
178.866027156039
 30
0.0
 10
289.2256882788536
 20
178.1096204095917
 30
0.0
 10
293.4565150876944
 20
177.3160939419948
 30
0.0
 10
297.7467666305997
 20
176.8475141145897
 30
0.0
 10
302.0434166206232
 20
176.5905660866095
 30
0.0
 10
306.3397132941071
 20
176.3336391876457
 30
0.0
 10
310.6424073624554
 20
176.2883092842754
 30
0.0
 10
314.9451014308058
 20
176.2429793809057
 30
0.0
  0
SPLINE
  5
A3
330
70
100
AcDbEntity
  8
SHADE
 62
     4
420
    65535
370
    25
100
AcDbSpline
210
0.0
220
0.0
230
1.0
 70
     8
 71
     3
 72
    38
 73
    34
 74
     0
 42
0.0000000001
 43
0.0000000001
 40
0.0
 40
0.0
 40
0.0
 40
0.0
 40
1.0
 40
1.0
 40
1.0
 40
2.0
 40
2.0
 40
2.0
 40
3.0
 40
3.0
 40
3.0
 40
4.0
 40
4.0
 40
4.0
 40
5.0
 40
5.0
 40
5.0
 40
6.0
 40
6.0
 40
6.0
 40
7.0
 40
7.0
 40
7.0
 40
8.0
 40
8.0
 40
8.0
 40
9.0
 40
9.0
 40
9.0
 40
10.0
 40
10.0
 40
10.0
 40
11.0
 40
11.0
 40
11.0
 40
11.0
 10
239.8319554259995
 20
238.3042167472769
 30
0.0
 10
240.1635195779856
 20
235.990137873955
 30
0.0
 10
240.4950837299634
 20
233.676059000633
 30
0.0
 10
240.8266478819495
 20
231.3619801273115
 30
0.0
 10
241.2424832494759
 20
228.4597488908304
 30
0.0
 10
241.658318617006
 20
225.5575176543493
 30
0.0
 10
242.256725403692
 20
222.6867814702763
 30
0.0
 10
242.8551321903805
 20
219.8160452861911
 30
0.0
 10
243.6361103962271
 20
216.9768041545142
 30
0.0
 10
244.6662054917152
 20
214.2310970412494
 30
0.0
 10
245.5063594442021
 20
211.9916759492702
 30
0.0
 10
246.5122300995049
 20
209.8144752436908
 30
0.0
 10
247.6607287339426
 20
207.7152036133207
 30
0.0
 10
248.8092273683804
 20
205.6159319829502
 30
0.0
 10
250.1003539819525
 20
203.5945894277883
 30
0.0
 10
251.5536948517251
 20
201.6928410023386
 30
0.0
 10
254.2255891263313
 20
198.1965719333373
 30
0.0
 10
257.4457510047873
 20
195.104518797434
 30
0.0
 10
260.9848381283056
 20
192.4808095487256
 30
0.0
 10
264.5239252518627
 20
189.8571002999886
 30
0.0
 10
268.3819376204886
 20
187.7017349384568
 30
0.0
 10
272.3558288333515
 20
185.8093361435947
 30
0.0
 10
276.0644697177312
 20
184.043251677704
 30
0.0
 10
279.8740363021664
 20
182.5062002592783
 30
0.0
 10
283.7682845173769
 20
181.2120051291525
 30
0.0
 10
287.6625327325147
 20
179.9178099990512
 30
0.0
 10
291.6414625784242
 20
178.8664711572401
 30
0.0
 10
295.6743672586638
 20
178.1096204095917
 30
0.0
 10
299.905181724686
 20
177.3156281519862
 30
0.0
 10
304.1953985048992
 20
176.8457364592486
 30
0.0
 10
308.4920956004279
 20
176.5905660866095
 30
0.0
 10
312.788331076054
 20
176.3354231284513
 30
0.0
 10
317.0910454746323
 20
176.294955355275
 30
0.0
 10
321.393759873208
 20
176.2544875820992
 30
0.0
  0
SPLINE
  5
A4
330
70
100
AcDbEntity
  8
SHADE
 62
     4
420
    65535
370
    25
100
AcDbSpline
210
0.0
220
0.0
230
1.0
 70
     8
 71
     3
 72
    44
 73
    40
 74
     0
 42
0.0000000001
 43
0.0000000001
 40
0.0
 40
0.0
 40
0.0
 40
0.0
 40
1.0
 40
1.0
 40
1.0
 40
2.0
 40
2.0
 40
2.0
 40
3.0
 40
3.0
 40
3.0
 40
4.0
 40
4.0
 40
4.0
 40
5.0
 40
5.0
 40
5.0
 40
6.0
 40
6.0
 40
6.0
 40
7.0
 40
7.0
 40
7.0
 40
8.0
 40
8.0
 40
8.0
 40
9.0
 40
9.0
 40
9.0
 40
10.0
 40
10.0
 40
10.0
 40
11.0
 40
11.0
 40
11.0
 40
12.0
 40
12.0
 40
12.0
 40
13.0
 40
13.0
 40
13.0
 40
13.0
 10
246.917674877965
 20
239.260041412291
 30
0.0
 10
247.294889617175
 20
236.6273543172974
 30
0.0
 10
247.672104356385
 20
233.9946672223048
 30
0.0
 10
248.0493190955947
 20
231.3619801273115
 30
0.0
 10
248.465154462734
 20
228.4597488756716
 30
0.0
 10
248.880989829876
 20
225.5575176240323
 30
0.0
 10
249.4793966173372
 20
222.6867814702763
 30
0.0
 10
250.0778034048008
 20
219.8160453165075
 30
0.0
 10
250.858781612585
 20
216.9768042606224
 30
0.0
 10
251.8888767053629
 20
214.2310970412494
 30
0.0
 10
252.7290306556392
 20
211.9916758627275
 30
0.0
 10
253.734901305639
 20
209.8144749496027
 30
0.0
 10
254.8833999475916
 20
207.7152036133207
 30
0.0
 10
256.0318985895444
 20
205.6159322770386
 30
0.0
 10
257.3230252234493
 20
203.5945905175986
 30
0.0
 10
258.7763660653725
 20
201.6928410023386
 30
0.0
 10
261.4482602887798
 20
198.1965699297741
 30
0.0
 10
264.6684219531872
 20
195.1045084174014
 30
0.0
 10
268.2075093419555
 20
192.4808095487253
 30
0.0
 10
271.7465967307621
 20
189.8571106800211
 30
0.0
 10
275.6046098439364
 20
187.7017744550236
 30
0.0
 10
279.5785000469948
 20
185.8093361435947
 30
0.0
 10
283.2871399889724
 20
184.0432147987995
 30
0.0
 10
287.0967041030366
 20
182.5060667074451
 30
0.0
 10
290.9909557310225
 20
181.2120051291532
 30
0.0
 10
294.885207358936
 20
179.9179435508843
 30
0.0
 10
298.8641465007683
 20
178.8669684856682
 30
0.0
 10
302.8970384723115
 20
178.1096204095917
 30
0.0
 10
307.1278396059713
 20
177.3151064177845
 30
0.0
 10
311.4180188365119
 20
176.8437452967623
 30
0.0
 10
315.7147668140737
 20
176.5905660866095
 30
0.0
 10
319.0336692755461
 20
176.3950049068156
 30
0.0
 10
322.356490885814
 20
176.3296188381253
 30
0.0
 10
325.6802040004255
 20
176.2938442188038
 30
0.0
 10
325.6805179642476
 20
176.2938408394697
 30
0.0
 10
325.6808319280799
 20
176.2938374604007
 30
0.0
 10
325.681145891902
 20
176.2938340813303
 30
0.0
 10
326.6809163712529
 20
176.2830739435571
 30
0.0
 10
327.6806868505973
 20
176.2723138057833
 30
0.0
 10
328.6804573299483
 20
176.2615536680095
 30
0.0
  0
SPLINE
  5
A5
330
70
100
AcDbEntity
  8
SHADE
 62
     4
420
    65535
370
    25
100
AcDbSpline
210
0.0
220
0.0
230
1.0
 70
     8
 71
     3
 72
    44
 73
    40
 74
     0
 42
0.0000000001
 43
0.0000000001
 40
0.0
 40
0.0
 40
0.0
 40
0.0
 40
1.0
 40
1.0
 40
1.0
 40
2.0
 40
2.0
 40
2.0
 40
3.0
 40
3.0
 40
3.0
 40
4.0
 40
4.0
 40
4.0
 40
5.0
 40
5.0
 40
5.0
 40
6.0
 40
6.0
 40
6.0
 40
7.0
 40
7.0
 40
7.0
 40
8.0
 40
8.0
 40
8.0
 40
9.0
 40
9.0
 40
9.0
 40
10.0
 40
10.0
 40
10.0
 40
11.0
 40
11.0
 40
11.0
 40
12.0
 40
12.0
 40
12.0
 40
13.0
 40
13.0
 40
13.0
 40
13.0
 10
254.7307438797714
 20
240.1468793279327
 30
0.0
 10
255.1503143691691
 20
237.2185795943918
 30
0.0
 10
255.5698848585732
 20
234.2902798608523
 30
0.0
 10
255.9894553479705
 20
231.3619801273115
 30
0.0
 10
256.4052907146983
 20
228.4597488590073
 30
0.0
 10
256.8211260814321
 20
225.5575175907024
 30
0.0
 10
257.4195328697101
 20
222.686781470277
 30
0.0
 10
258.0179396579903
 20
219.8160453498386
 30
0.0
 10
258.7989178678167
 20
216.9768043772797
 30
0.0
 10
259.829012957733
 20
214.2310970412491
 30
0.0
 10
260.6691669056757
 20
211.9916757675802
 30
0.0
 10
261.6750375500805
 20
209.8144746262759
 30
0.0
 10
262.8235361999559
 20
207.7152036133207
 30
0.0
 10
263.9720348498317
 20
205.6159326003648
 30
0.0
 10
265.2631615051781
 20
203.5945917157579
 30
0.0
 10
266.716502317741
 20
201.6928410023383
 30
0.0
 10
269.3883964871701
 20
198.1965677270187
 30
0.0
 10
272.6085579258939
 20
195.1044970053882
 30
0.0
 10
276.1476455943269
 20
192.4808095487253
 30
0.0
 10
279.6867332627981
 20
189.8571220920341
 30
0.0
 10
283.5447471609853
 20
187.7018179003214
 30
0.0
 10
287.5186362993702
 20
185.8093361435947
 30
0.0
 10
291.2272752477395
 20
184.0431742533992
 30
0.0
 10
295.0368367571942
 20
182.5059198779098
 30
0.0
 10
298.9310919833957
 20
181.2120051291525
 30
0.0
 10
302.825347209524
 20
179.9180903804197
 30
0.0
 10
306.8042961523961
 20
178.8675152584106
 30
0.0
 10
310.8371747246877
 20
178.1096204095917
 30
0.0
 10
315.0679618015459
 20
177.3145328128491
 30
0.0
 10
319.3581014420716
 20
176.8415561732114
 30
0.0
 10
323.6549030664537
 20
176.5905660866095
 30
0.0
 10
324.3399836952016
 20
176.5505483102793
 30
0.0
 10
325.0252336782949
 20
176.5161736559009
 30
0.0
 10
325.7106260095149
 20
176.4865422387831
 30
0.0
 10
325.7118051998703
 20
176.4864912591036
 30
0.0
 10
325.7129843906537
 20
176.4864402934639
 30
0.0
 10
325.7141635814365
 20
176.4863893278242
 30
0.0
 10
326.5426693834003
 20
176.4505805945831
 30
0.0
 10
327.3711751853724
 20
176.414771861342
 30
0.0
 10
328.1996809873358
 20
176.3789631281002
 30
0.0
  0
SPLINE
  5
A6
330
70
100
AcDbEntity
  8
SHADE
 62
     4
420
    65535
370
    25
100
AcDbSpline
210
0.0
220
0.0
230
1.0
 70
     8
 71
     3
 72
    41
 73
    37
 74
     0
 42
0.0000000001
 43
0.0000000001
 40
0.0
 40
0.0
 40
0.0
 40
0.0
 40
1.0
 40
1.0
 40
1.0
 40
2.0
 40
2.0
 40
2.0
 40
3.0
 40
3.0
 40
3.0
 40
4.0
 40
4.0
 40
4.0
 40
5.0
 40
5.0
 40
5.0
 40
6.0
 40
6.0
 40
6.0
 40
7.0
 40
7.0
 40
7.0
 40
8.0
 40
8.0
 40
8.0
 40
9.0
 40
9.0
 40
9.0
 40
10.0
 40
10.0
 40
10.0
 40
11.0
 40
11.0
 40
11.0
 40
12.0
 40
12.0
 40
12.0
 40
12.0
 10
263.2103210902027
 20
240.9556501062112
 30
0.0
 10
263.6685188292202
 20
237.7577601132449
 30
0.0
 10
264.1267165682383
 20
234.5598701202782
 30
0.0
 10
264.5849143072545
 20
231.3619801273115
 30
0.0
 10
265.0007496763194
 20
228.4597489458484
 30
0.0
 10
265.4165850453812
 20
225.5575177643863
 30
0.0
 10
266.0149918290005
 20
222.6867814702763
 30
0.0
 10
266.6133986126226
 20
219.8160451761538
 30
0.0
 10
267.3943768108035
 20
216.9768037693835
 30
0.0
 10
268.4244719170218
 20
214.2310970412488
 30
0.0
 10
269.2646258782605
 20
211.9916762633847
 30
0.0
 10
270.270496554552
 20
209.8144763111126
 30
0.0
 10
271.4189951592457
 20
207.71520361332
 30
0.0
 10
272.5674937639397
 20
205.6159309155275
 30
0.0
 10
273.8586202970357
 20
203.5945854722143
 30
0.0
 10
275.3119612770298
 20
201.692841002338
 30
0.0
 10
277.9838557542733
 20
198.1965792054596
 30
0.0
 10
281.2040184799069
 20
195.1045564727708
 30
0.0
 10
284.7431045536099
 20
192.4808095487249
 30
0.0
 10
288.2821906273515
 20
189.8570626246509
 30
0.0
 10
292.1402000491694
 20
187.7015915092302
 30
0.0
 10
296.1140952586533
 20
185.8093361435941
 30
0.0
 10
299.8227398728866
 20
184.0433855332783
 30
0.0
 10
303.632316234616
 20
182.5066849986563
 30
0.0
 10
307.5265509426807
 20
181.2120051291525
 30
0.0
 10
311.4207856506728
 20
179.9173252596725
 30
0.0
 10
315.3996787049973
 20
178.8646660553018
 30
0.0
 10
319.4326336839714
 20
178.1096204095917
 30
0.0
 10
321.652021718829
 20
177.6941088850155
 30
0.0
 10
323.8877821118144
 20
177.3687279985484
 30
0.0
 10
326.1322113080162
 20
177.1153794321946
 30
0.0
 10
326.1338690147538
 20
177.1151923121791
 30
0.0
 10
326.1355267262275
 20
177.1150052314574
 30
0.0
 10
326.1371844376929
 20
177.1148181507363
 30
0.0
 10
326.1827338456056
 20
177.109677680733
 30
0.0
 10
326.2282832535183
 20
177.104537210729
 30
0.0
 10
326.2738326614314
 20
177.099396740725
 30
0.0
  0
SPLINE
  5
A7
330
70
100
AcDbEntity
  8
SHADE
 62
     4
420
    65535
370
    25
100
AcDbSpline
210
0.0
220
0.0
230
1.0
 70
     8
 71
     3
 72
    32
 73
    28
 74
     0
 42
0.0000000001
 43
0.0000000001
 40
0.0
 40
0.0
 40
0.0
 40
0.0
 40
1.0
 40
1.0
 40
1.0
 40
2.0
 40
2.0
 40
2.0
 40
3.0
 40
3.0
 40
3.0
 40
4.0
 40
4.0
 40
4.0
 40
5.0
 40
5.0
 40
5.0
 40
6.0
 40
6.0
 40
6.0
 40
7.0
 40
7.0
 40
7.0
 40
8.0
 40
8.0
 40
8.0
 40
9.0
 40
9.0
 40
9.0
 40
9.0
 10
272.2902491198418
 20
241.6785814159084
 30
0.0
 10
272.7829743642114
 20
238.2397143197088
 30
0.0
 10
273.2756996085801
 20
234.8008472235101
 30
0.0
 10
273.7684248529565
 20
231.3619801273115
 30
0.0
 10
274.1842602220193
 20
228.4597489458484
 30
0.0
 10
274.6000955910819
 20
225.5575177643863
 30
0.0
 10
275.1985023747014
 20
222.6867814702763
 30
0.0
 10
275.7969091583236
 20
219.8160451761538
 30
0.0
 10
276.5778873565048
 20
216.9768037693835
 30
0.0
 10
277.6079824627231
 20
214.2310970412488
 30
0.0
 10
278.4481364239618
 20
211.9916762633847
 30
0.0
 10
279.4540071002533
 20
209.8144763111126
 30
0.0
 10
280.6025057049473
 20
207.71520361332
 30
0.0
 10
281.751004309641
 20
205.6159309155275
 30
0.0
 10
283.042130842737
 20
203.5945854722143
 30
0.0
 10
284.4954718227311
 20
201.692841002338
 30
0.0
 10
287.1673662999742
 20
198.1965792054596
 30
0.0
 10
290.3875290256075
 20
195.1045564727708
 30
0.0
 10
293.9266150993105
 20
192.4808095487249
 30
0.0
 10
297.4657011730518
 20
189.8570626246509
 30
0.0
 10
301.3237105948704
 20
187.7015915092302
 30
0.0
 10
305.2976058043552
 20
185.8093361435947
 30
0.0
 10
309.0062504185891
 20
184.0433855332783
 30
0.0
 10
312.8158267803198
 20
182.5066849986563
 30
0.0
 10
316.7100614883842
 20
181.2120051291525
 30
0.0
 10
319.655882564385
 20
180.2326354886012
 30
0.0
 10
322.6501474473202
 20
179.3917566511767
 30
0.0
 10
325.6796120093733
 20
178.6650521374303
 30
0.0
  0
SPLINE
  5
A8
330
70
100
AcDbEntity
  8
SHADE
 62
     4
420
    65535
370
    25
100
AcDbSpline
210
0.0
220
0.0
230
1.0
 70
     8
 71
     3
 72
    29
 73
    25
 74
     0
 42
0.0000000001
 43
0.0000000001
 40
0.0
 40
0.0
 40
0.0
 40
0.0
 40
1.0
 40
1.0
 40
1.0
 40
2.0
 40
2.0
 40
2.0
 40
3.0
 40
3.0
 40
3.0
 40
4.0
 40
4.0
 40
4.0
 40
5.0
 40
5.0
 40
5.0
 40
6.0
 40
6.0
 40
6.0
 40
7.0
 40
7.0
 40
7.0
 40
8.0
 40
8.0
 40
8.0
 40
8.0
 10
281.8996091288779
 20
242.3090106528007
 30
0.0
 10
282.4224439404428
 20
238.6600004776374
 30
0.0
 10
282.9452787520063
 20
235.0109903024738
 30
0.0
 10
283.4681135635794
 20
231.3619801273105
 30
0.0
 10
283.8839489326339
 20
228.4597489458484
 30
0.0
 10
284.2997843016968
 20
225.557517764386
 30
0.0
 10
284.8981910853161
 20
222.6867814702757
 30
0.0
 10
285.4965978689382
 20
219.8160451761532
 30
0.0
 10
286.2775760671188
 20
216.9768037693831
 30
0.0
 10
287.3076711733387
 20
214.2310970412488
 30
0.0
 10
288.1478251345787
 20
211.9916762633847
 30
0.0
 10
289.1536958108737
 20
209.8144763111126
 30
0.0
 10
290.302194415568
 20
207.71520361332
 30
0.0
 10
291.450693020262
 20
205.6159309155275
 30
0.0
 10
292.7418195533562
 20
203.5945854722143
 30
0.0
 10
294.1951605333492
 20
201.692841002338
 30
0.0
 10
296.8670550105911
 20
198.1965792054596
 30
0.0
 10
300.0872177362276
 20
195.1045564727705
 30
0.0
 10
303.6263038099316
 20
192.3274694223347
 30
0.0
 10
307.1653898836741
 20
189.5503823718691
 30
0.0
 10
311.0233993054908
 20
187.0882310036641
 30
0.0
 10
314.9972945149743
 20
184.950909079688
 30
0.0
 10
318.4529877232435
 20
183.0922971970839
 30
0.0
 10
321.9963139385804
 20
181.4793218291476
 30
0.0
 10
326.0578922343409
 20
180.0134984453898
 30
0.0
  0
SPLINE
  5
A9
330
70
100
AcDbEntity
  8
SHADE
 62
     4
420
    65535
370
    25
100
AcDbSpline
210
0.0
220
0.0
230
1.0
 70
     8
 71
     3
 72
    29
 73
    25
 74
     0
 42
0.0000000001
 43
0.0000000001
 40
0.0
 40
0.0
 40
0.0
 40
0.0
 40
1.0
 40
1.0
 40
1.0
 40
2.0
 40
2.0
 40
2.0
 40
3.0
 40
3.0
 40
3.0
 40
4.0
 40
4.0
 40
4.0
 40
5.0
 40
5.0
 40
5.0
 40
6.0
 40
6.0
 40
6.0
 40
7.0
 40
7.0
 40
7.0
 40
8.0
 40
8.0
 40
8.0
 40
8.0
 10
291.9632975184032
 20
242.8412872763805
 30
0.0
 10
292.5115540868125
 20
239.0148515600235
 30
0.0
 10
293.0598106552222
 20
235.1884158436682
 30
0.0
 10
293.6080672236323
 20
231.3619801273115
 30
0.0
 10
294.0239025926951
 20
228.4597489458484
 30
0.0
 10
294.439737961757
 20
225.5575177643863
 30
0.0
 10
295.0381447453763
 20
222.6867814702763
 30
0.0
 10
295.6365515289981
 20
219.8160451761538
 30
0.0
 10
296.4175297271793
 20
216.9768037693835
 30
0.0
 10
297.4476248333976
 20
214.2310970412488
 30
0.0
 10
298.287778794636
 20
211.9916762633847
 30
0.0
 10
299.2936494709277
 20
209.8144763111126
 30
0.0
 10
300.4421480756215
 20
207.71520361332
 30
0.0
 10
301.5906466803155
 20
205.6159309155275
 30
0.0
 10
302.8817732134115
 20
203.5945854722143
 30
0.0
 10
304.3351141934062
 20
201.5277755530855
 30
0.0
 10
307.0070086706506
 20
197.7280492091315
 30
0.0
 10
310.2271713962877
 20
193.7746575844582
 30
0.0
 10
313.7662574699918
 20
190.4624577369153
 30
0.0
 10
317.305343543734
 20
187.1502578893359
 30
0.0
 10
321.16335296555
 20
184.4792498189007
 30
0.0
 10
325.107339945494
 20
182.3197145320447
 30
0.0
 10
326.0734793575779
 20
181.7907036192228
 30
0.0
 10
327.0447781050306
 20
181.2923851298649
 30
0.0
 10
327.9982451927325
 20
180.8259073564663
 30
0.0
  0
SPLINE
  5
AA
330
70
100
AcDbEntity
  8
SHADE
 62
     4
420
    65535
370
    25
100
AcDbSpline
210
0.0
220
0.0
230
1.0
 70
     8
 71
     3
 72
    26
 73
    22
 74
     0
 42
0.0000000001
 43
0.0000000001
 40
0.0
 40
0.0
 40
0.0
 40
0.0
 40
1.0
 40
1.0
 40
1.0
 40
2.0
 40
2.0
 40
2.0
 40
3.0
 40
3.0
 40
3.0
 40
4.0
 40
4.0
 40
4.0
 40
5.0
 40
5.0
 40
5.0
 40
6.0
 40
6.0
 40
6.0
 40
7.0
 40
7.0
 40
7.0
 40
7.0
 10
302.4026266133777
 20
243.270726720366
 30
0.0
 10
302.971393391417
 20
239.3011445226814
 30
0.0
 10
303.5401601694499
 20
235.3315623249958
 30
0.0
 10
304.1089269474828
 20
231.3619801273115
 30
0.0
 10
304.5247623165373
 20
228.4597489458484
 30
0.0
 10
304.9405976855992
 20
225.5575177643863
 30
0.0
 10
305.4957400640134
 20
222.6867814702763
 30
0.0
 10
306.0508824424299
 20
219.8160451761538
 30
0.0
 10
306.7453318301993
 20
216.9768037693835
 30
0.0
 10
307.5296283958695
 20
214.2310970412488
 30
0.0
 10
308.1693070648151
 20
211.9916762633847
 30
0.0
 10
308.8687535724663
 20
209.8144763111126
 30
0.0
 10
309.6844816532323
 20
207.71520361332
 30
0.0
 10
310.5002097339983
 20
205.6159309155275
 30
0.0
 10
311.4322193878787
 20
203.5945854722143
 30
0.0
 10
312.508125585385
 20
201.5277755530855
 30
0.0
 10
314.4861251510214
 20
197.7280492091312
 30
0.0
 10
316.950480324508
 20
193.7746575844582
 30
0.0
 10
320.8047665292037
 20
189.7645941451272
 30
0.0
 10
323.6520882879989
 20
186.8021932546471
 30
0.0
 10
327.2579499356449
 20
183.8088643317494
 30
0.0
 10
330.7275299258322
 20
181.3784639853498
 30
0.0
  0
SPLINE
  5
AB
330
70
100
AcDbEntity
  8
SHADE
 62
     4
420
    65535
370
    25
100
AcDbSpline
210
0.0
220
0.0
230
1.0
 70
     8
 71
     3
 72
    29
 73
    25
 74
     0
 42
0.0000000001
 43
0.0000000001
 40
0.0
 40
0.0
 40
0.0
 40
0.0
 40
1.0
 40
1.0
 40
1.0
 40
2.0
 40
2.0
 40
2.0
 40
3.0
 40
3.0
 40
3.0
 40
4.0
 40
4.0
 40
4.0
 40
5.0
 40
5.0
 40
5.0
 40
6.0
 40
6.0
 40
6.0
 40
7.0
 40
7.0
 40
7.0
 40
8.0
 40
8.0
 40
8.0
 40
8.0
 10
315.3032048362673
 20
243.6449458922653
 30
0.0
 10
315.1650888911317
 20
239.5540606660997
 30
0.0
 10
315.0269729459962
 20
235.4631754399338
 30
0.0
 10
314.8888570008606
 20
231.3722902137691
 30
0.0
 10
314.8887409715926
 20
231.3688535182838
 30
0.0
 10
314.8886249423178
 20
231.3654168227972
 30
0.0
 10
314.8885092701889
 20
231.3619801273115
 30
0.0
 10
314.7908261168094
 20
228.4597489458484
 30
0.0
 10
314.9478441936809
 20
225.5575177643863
 30
0.0
 10
315.2028278964733
 20
222.6867814702763
 30
0.0
 10
315.4578115992667
 20
219.8160451761538
 30
0.0
 10
315.8107609279818
 20
216.9768037693835
 30
0.0
 10
316.3989417711892
 20
214.2310970412488
 30
0.0
 10
316.8786668590591
 20
211.9916762633847
 30
0.0
 10
317.5148718670024
 20
209.8144763111126
 30
0.0
 10
318.2056551614981
 20
207.71520361332
 30
0.0
 10
318.8964384559939
 20
205.6159309155275
 30
0.0
 10
319.6418000370421
 20
203.5945854722143
 30
0.0
 10
320.7792280926702
 20
201.1051198446614
 30
0.0
 10
322.8703325078961
 20
196.5283621855109
 30
0.0
 10
326.2865815288026
 20
190.3694061565053
 30
0.0
 10
330.8333218944661
 20
184.7483575271712
 30
0.0
 10
331.6792471502349
 20
183.7025562240291
 30
0.0
 10
332.5643043041025
 20
182.6753745570729
 30
0.0
 10
333.4677703048969
 20
181.7022090368513
 30
0.0
  0
SPLINE
  5
AC
330
70
100
AcDbEntity
  8
SHADE
 62
     4
420
    65535
370
    25
100
AcDbSpline
210
0.0
220
0.0
230
1.0
 70
     8
 71
     3
 72
    26
 73
    22
 74
     0
 42
0.0000000001
 43
0.0000000001
 40
0.0
 40
0.0
 40
0.0
 40
0.0
 40
1.0
 40
1.0
 40
1.0
 40
2.0
 40
2.0
 40
2.0
 40
3.0
 40
3.0
 40
3.0
 40
4.0
 40
4.0
 40
4.0
 40
5.0
 40
5.0
 40
5.0
 40
6.0
 40
6.0
 40
6.0
 40
7.0
 40
7.0
 40
7.0
 40
7.0
 10
326.2827328500413
 20
243.8364390066568
 30
0.0
 10
326.1427041422233
 20
239.680239530928
 30
0.0
 10
326.0026754344042
 20
235.5240400551986
 30
0.0
 10
325.8626467265778
 20
231.3678405794692
 30
0.0
 10
325.8625809107177
 20
231.3658870954169
 30
0.0
 10
325.8625150948583
 20
231.3639336113642
 30
0.0
 10
325.8624493445889
 20
231.3619801273105
 30
0.0
 10
325.7647661912161
 20
228.4597489458484
 30
0.0
 10
325.8118601336335
 20
225.557517764386
 30
0.0
 10
325.8886278211075
 20
222.6867814702757
 30
0.0
 10
325.9653955085818
 20
219.8160451761525
 30
0.0
 10
326.0718369411131
 20
216.9768037693825
 30
0.0
 10
326.4458412709467
 20
214.2310970412478
 30
0.0
 10
326.7508822495253
 20
211.9916762633838
 30
0.0
 10
327.2339105223446
 20
209.8144763111116
 30
0.0
 10
327.6783002072951
 20
207.7152036133194
 30
0.0
 10
328.1226898922456
 20
205.6159309155269
 30
0.0
 10
328.5284409893276
 20
203.5945854722136
 30
0.0
 10
329.423961233576
 20
200.0834532786668
 30
0.0
 10
330.5288839986534
 20
195.7513011952693
 30
0.0
 10
332.3794042764227
 20
189.1511800047068
 30
0.0
 10
336.3156159257636
 20
181.8923726957422
 30
0.0
  0
SPLINE
  5
AD
330
70
100
AcDbEntity
  8
SHADE
 62
     4
420
    65535
370
    25
100
AcDbSpline
210
0.0
220
0.0
230
1.0
 70
     8
 71
     3
 72
    23
 73
    19
 74
     0
 42
0.0000000001
 43
0.0000000001
 40
0.0
 40
0.0
 40
0.0
 40
0.0
 40
1.0
 40
1.0
 40
1.0
 40
2.0
 40
2.0
 40
2.0
 40
3.0
 40
3.0
 40
3.0
 40
4.0
 40
4.0
 40
4.0
 40
5.0
 40
5.0
 40
5.0
 40
6.0
 40
6.0
 40
6.0
 40
6.0
 10
337.3678369414649
 20
243.9163470919236
 30
0.0
 10
337.226910825159
 20
239.7335115877717
 30
0.0
 10
337.0859847088628
 20
235.5506760836214
 30
0.0
 10
336.9450585925654
 20
231.3678405794692
 30
0.0
 10
336.9449927767063
 20
231.3658870954169
 30
0.0
 10
336.9449269608395
 20
231.3639336113642
 30
0.0
 10
336.9448612105697
 20
231.3619801273105
 30
0.0
 10
336.8471780571973
 20
228.4597489458484
 30
0.0
 10
336.8942719996146
 20
225.557517764386
 30
0.0
 10
336.9257785151386
 20
222.6411526718249
 30
0.0
 10
336.9572850306625
 20
219.7247875792514
 30
0.0
 10
336.9732041192934
 20
216.7942885755795
 30
0.0
 10
337.0362683875327
 20
211.8649390687874
 30
0.0
 10
337.0877041185191
 20
207.8445214496174
 30
0.0
 10
337.1705016079542
 20
202.4944351946692
 30
0.0
 10
337.6415323791377
 20
195.1481096992232
 30
0.0
 10
337.8715812702079
 20
191.560203903981
 30
0.0
 10
338.1942351733291
 20
187.4961365645995
 30
0.0
 10
338.9153902079597
 20
181.9642512282221
 30
0.0
  0
LINE
  5
AE
330
70
100
AcDbEntity
  8
SHADE
 62
     4
420
    65535
370
    25
100
AcDbLine
 10
350.7895921330933
 20
176.2674457699407
 30
0.0
 11
384.2711449936762
 21
176.2076949783564
 31
0.0
  0
SPLINE
  5
AF
330
70
100
AcDbEntity
  8
SHADE
 62
     4
420
    65535
370
    25
100
AcDbSpline
210
0.0
220
0.0
230
1.0
 70
     8
 71
     3
 72
     8
 73
     4
 74
     0
 42
0.0000000001
 43
0.0000000001
 40
0.0
 40
0.0
 40
0.0
 40
0.0
 40
1.0
 40
1.0
 40
1.0
 40
1.0
 10
460.9986852582742
 20
214.2310970413576
 30
0.0
 10
462.9681592537258
 20
219.893896050014
 30
0.0
 10
464.2696793051952
 20
225.7672937818396
 30
0.0
 10
464.8768074053844
 20
231.7319828685531
 30
0.0
  0
SPLINE
  5
B0
330
70
100
AcDbEntity
  8
SHADE
 62
     4
420
    65535
370
    25
100
AcDbSpline
210
0.0
220
0.0
230
1.0
 70
     8
 71
     3
 72
     8
 73
     4
 74
     0
 42
0.0000000001
 43
0.0000000001
 40
0.0
 40
0.0
 40
0.0
 40
0.0
 40
1.0
 40
1.0
 40
1.0
 40
1.0
 10
454.1111958982223
 20
201.6928410023351
 30
0.0
 10
456.9941994328478
 20
205.521779491534
 30
0.0
 10
459.3136055576689
 20
209.7441174627626
 30
0.0
 10
460.9986852582242
 20
214.2310970412216
 30
0.0
  0
SPLINE
  5
B1
330
70
100
AcDbEntity
  8
SHADE
 62
     4
420
    65535
370
    25
100
AcDbSpline
210
0.0
220
0.0
230
1.0
 70
     8
 71
     3
 72
     8
 73
     4
 74
     0
 42
0.0000000001
 43
0.0000000001
 40
0.0
 40
0.0
 40
0.0
 40
0.0
 40
1.0
 40
1.0
 40
1.0
 40
1.0
 10
433.3090619163966
 20
185.8093361435087
 30
0.0
 10
441.4329123454585
 20
189.3311614129505
 30
0.0
 10
448.5738087071176
 20
194.7836050014915
 30
0.0
 10
454.1111958983121
 20
201.6928410024573
 30
0.0
  0
SPLINE
  5
B2
330
70
100
AcDbEntity
  8
SHADE
 62
     4
420
    65535
370
    25
100
AcDbSpline
210
0.0
220
0.0
230
1.0
 70
     8
 71
     3
 72
     8
 73
     4
 74
     0
 42
0.0000000001
 43
0.0000000001
 40
0.0
 40
0.0
 40
0.0
 40
0.0
 40
1.0
 40
1.0
 40
1.0
 40
1.0
 10
409.9905234906361
 20
178.109620409473
 30
0.0
 10
418.0605074465275
 20
179.6690126840886
 30
0.0
 10
425.8972473707798
 20
182.2566821424742
 30
0.0
 10
433.3090619166636
 20
185.8093361436248
 30
0.0
  0
SPLINE
  5
B3
330
70
100
AcDbEntity
  8
SHADE
 62
     4
420
    65535
370
    25
100
AcDbSpline
210
0.0
220
0.0
230
1.0
 70
     8
 71
     3
 72
     8
 73
     4
 74
     0
 42
0.0000000001
 43
0.0000000001
 40
0.0
 40
0.0
 40
0.0
 40
0.0
 40
1.0
 40
1.0
 40
1.0
 40
1.0
 10
384.2710473712094
 20
176.2076951525764
 30
0.0
 10
392.8834883590976
 20
176.0829774316
 30
0.0
 10
401.4901084185708
 20
176.7194269452826
 30
0.0
 10
409.9905234914652
 20
178.1096204096225
 30
0.0
  0
SPLINE
  5
B4
330
70
100
AcDbEntity
  8
SHADE
 62
     4
420
    65535
370
    25
100
AcDbSpline
210
0.0
220
0.0
230
1.0
 70
     8
 71
     3
 72
     8
 73
     4
 74
     0
 42
0.0000000001
 43
0.0000000001
 40
0.0
 40
0.0
 40
0.0
 40
0.0
 40
1.0
 40
1.0
 40
1.0
 40
1.0
 10
460.3267604867307
 20
214.2310970413576
 30
0.0
 10
462.3395782353134
 20
220.0185216926137
 30
0.0
 10
463.6545629736591
 20
226.02546817761
 30
0.0
 10
464.2438229279981
 20
232.1245248332896
 30
0.0
  0
SPLINE
  5
B5
330
70
100
AcDbEntity
  8
SHADE
 62
     4
420
    65535
370
    25
100
AcDbSpline
210
0.0
220
0.0
230
1.0
 70
     8
 71
     3
 72
     8
 73
     4
 74
     0
 42
0.0000000001
 43
0.0000000001
 40
0.0
 40
0.0
 40
0.0
 40
0.0
 40
1.0
 40
1.0
 40
1.0
 40
1.0
 10
453.4392711266865
 20
201.6928410023351
 30
0.0
 10
456.3222746613119
 20
205.521779491534
 30
0.0
 10
458.6416807861336
 20
209.7441174627626
 30
0.0
 10
460.3267604866884
 20
214.2310970412216
 30
0.0
  0
SPLINE
  5
B6
330
70
100
AcDbEntity
  8
SHADE
 62
     4
420
    65535
370
    25
100
AcDbSpline
210
0.0
220
0.0
230
1.0
 70
     8
 71
     3
 72
     8
 73
     4
 74
     0
 42
0.0000000001
 43
0.0000000001
 40
0.0
 40
0.0
 40
0.0
 40
0.0
 40
1.0
 40
1.0
 40
1.0
 40
1.0
 10
432.6371371448614
 20
185.8093361435087
 30
0.0
 10
440.7609875739233
 20
189.3311614129505
 30
0.0
 10
447.9018839355817
 20
194.7836050014915
 30
0.0
 10
453.4392711267763
 20
201.6928410024573
 30
0.0
  0
SPLINE
  5
B7
330
70
100
AcDbEntity
  8
SHADE
 62
     4
420
    65535
370
    25
100
AcDbSpline
210
0.0
220
0.0
230
1.0
 70
     8
 71
     3
 72
     8
 73
     4
 74
     0
 42
0.0000000001
 43
0.0000000001
 40
0.0
 40
0.0
 40
0.0
 40
0.0
 40
1.0
 40
1.0
 40
1.0
 40
1.0
 10
409.3185987191087
 20
178.109620409473
 30
0.0
 10
417.3885826749994
 20
179.6690126840886
 30
0.0
 10
425.2253225992523
 20
182.2566821424742
 30
0.0
 10
432.6371371451361
 20
185.8093361436248
 30
0.0
  0
SPLINE
  5
B8
330
70
100
AcDbEntity
  8
SHADE
 62
     4
420
    65535
370
    25
100
AcDbSpline
210
0.0
220
0.0
230
1.0
 70
     8
 71
     3
 72
     8
 73
     4
 74
     0
 42
0.0000000001
 43
0.0000000001
 40
0.0
 40
0.0
 40
0.0
 40
0.0
 40
1.0
 40
1.0
 40
1.0
 40
1.0
 10
383.5991225996743
 20
176.2076951525764
 30
0.0
 10
392.2115635875618
 20
176.0829774316
 30
0.0
 10
400.8181836470356
 20
176.7194269452826
 30
0.0
 10
409.3185987199293
 20
178.1096204096225
 30
0.0
  0
SPLINE
  5
B9
330
70
100
AcDbEntity
  8
SHADE
 62
     4
420
    65535
370
    25
100
AcDbSpline
210
0.0
220
0.0
230
1.0
 70
     8
 71
     3
 72
    38
 73
    34
 74
     0
 42
0.0000000001
 43
0.0000000001
 40
0.0
 40
0.0
 40
0.0
 40
0.0
 40
1.0
 40
1.0
 40
1.0
 40
2.0
 40
2.0
 40
2.0
 40
3.0
 40
3.0
 40
3.0
 40
4.0
 40
4.0
 40
4.0
 40
5.0
 40
5.0
 40
5.0
 40
6.0
 40
6.0
 40
6.0
 40
7.0
 40
7.0
 40
7.0
 40
8.0
 40
8.0
 40
8.0
 40
9.0
 40
9.0
 40
9.0
 40
10.0
 40
10.0
 40
10.0
 40
11.0
 40
11.0
 40
11.0
 40
11.0
 10
462.4476179135994
 20
233.0151576405618
 30
0.0
 10
462.3686614558029
 20
232.4640984694787
 30
0.0
 10
462.2897049980155
 20
231.9130392983955
 30
0.0
 10
462.2107485402177
 20
231.3619801273115
 30
0.0
 10
461.7949131711552
 20
228.4597489458493
 30
0.0
 10
461.3790778020933
 20
225.5575177643866
 30
0.0
 10
460.7806710184753
 20
222.6867814702763
 30
0.0
 10
460.1822642348547
 20
219.8160451761535
 30
0.0
 10
459.4012860366768
 20
216.9768037693828
 30
0.0
 10
458.3711909304581
 20
214.2310970412488
 30
0.0
 10
457.5310369692194
 20
211.9916762633844
 30
0.0
 10
456.5251662929248
 20
209.8144763111129
 30
0.0
 10
455.3766676882288
 20
207.71520361332
 30
0.0
 10
454.2281690835328
 20
205.6159309155278
 30
0.0
 10
452.9370425504342
 20
203.5945854722146
 30
0.0
 10
451.4837015704395
 20
201.692841002338
 30
0.0
 10
448.8118070931944
 20
198.1965792054596
 30
0.0
 10
445.5916443675642
 20
195.1045564727708
 30
0.0
 10
442.0525582938626
 20
192.4808095487253
 30
0.0
 10
438.5134722201227
 20
189.8570626246509
 30
0.0
 10
434.6554627983051
 20
187.7015915092302
 30
0.0
 10
430.6815675888199
 20
185.8093361435947
 30
0.0
 10
426.972922974585
 20
184.0433855332783
 30
0.0
 10
423.163346612853
 20
182.5066849986563
 30
0.0
 10
419.2691119047891
 20
181.2120051291525
 30
0.0
 10
415.3748771967969
 20
179.9173252596725
 30
0.0
 10
411.3959841424753
 20
178.8646660553018
 30
0.0
 10
407.3630291635028
 20
178.1096204095917
 30
0.0
 10
403.1321619304008
 20
177.3175218370599
 30
0.0
 10
398.8417965353545
 20
176.8529635773151
 30
0.0
 10
394.5453008217336
 20
176.5905660866095
 30
0.0
 10
390.2488051081134
 20
176.328168595904
 30
0.0
 10
385.9461790759192
 20
176.2679318742382
 30
0.0
 10
381.6435530437283
 20
176.2076951525719
 30
0.0
  0
SPLINE
  5
BA
330
70
100
AcDbEntity
  8
SHADE
 62
     4
420
    65535
370
    25
100
AcDbSpline
210
0.0
220
0.0
230
1.0
 70
     8
 71
     3
 72
    38
 73
    34
 74
     0
 42
0.0000000001
 43
0.0000000001
 40
0.0
 40
0.0
 40
0.0
 40
0.0
 40
1.0
 40
1.0
 40
1.0
 40
2.0
 40
2.0
 40
2.0
 40
3.0
 40
3.0
 40
3.0
 40
4.0
 40
4.0
 40
4.0
 40
5.0
 40
5.0
 40
5.0
 40
6.0
 40
6.0
 40
6.0
 40
7.0
 40
7.0
 40
7.0
 40
8.0
 40
8.0
 40
8.0
 40
9.0
 40
9.0
 40
9.0
 40
10.0
 40
10.0
 40
10.0
 40
11.0
 40
11.0
 40
11.0
 40
11.0
 10
459.6828433084003
 20
234.0580955534586
 30
0.0
 10
459.5540756944339
 20
233.1593904114096
 30
0.0
 10
459.4253080804689
 20
232.2606852693605
 30
0.0
 10
459.2965404664954
 20
231.3619801273115
 30
0.0
 10
458.8807050974309
 20
228.4597489458493
 30
0.0
 10
458.4648697283729
 20
225.5575177643866
 30
0.0
 10
457.8664629447562
 20
222.6867814702763
 30
0.0
 10
457.2680561611362
 20
219.8160451761535
 30
0.0
 10
456.4870779629551
 20
216.9768037693828
 30
0.0
 10
455.4569828567352
 20
214.2310970412488
 30
0.0
 10
454.6168288954952
 20
211.9916762633844
 30
0.0
 10
453.6109582192005
 20
209.8144763111129
 30
0.0
 10
452.4624596145051
 20
207.71520361332
 30
0.0
 10
451.3139610098105
 20
205.6159309155278
 30
0.0
 10
450.0228344767145
 20
203.5945854722146
 30
0.0
 10
448.5694934967205
 20
201.692841002338
 30
0.0
 10
445.8975990194772
 20
198.1965792054596
 30
0.0
 10
442.6774362938437
 20
195.1045564727708
 30
0.0
 10
439.1383502201403
 20
192.4808095487253
 30
0.0
 10
435.599264146399
 20
189.8570626246509
 30
0.0
 10
431.7412547245808
 20
187.7015915092302
 30
0.0
 10
427.767359515097
 20
185.8093361435947
 30
0.0
 10
424.0587149008639
 20
184.0433855332783
 30
0.0
 10
420.2491385391345
 20
182.5066849986563
 30
0.0
 10
416.3549038310706
 20
181.2120051291525
 30
0.0
 10
412.460669123079
 20
179.9173252596725
 30
0.0
 10
408.4817760687554
 20
178.8646660553018
 30
0.0
 10
404.4488210897811
 20
178.1096204095917
 30
0.0
 10
400.2179538566777
 20
177.3175218370599
 30
0.0
 10
395.9275884616309
 20
176.8529635773151
 30
0.0
 10
391.6310927480119
 20
176.5905660866095
 30
0.0
 10
387.334597034393
 20
176.328168595904
 30
0.0
 10
383.0319710022027
 20
176.2679318742382
 30
0.0
 10
378.7293449700041
 20
176.2076951525719
 30
0.0
  0
SPLINE
  5
BB
330
70
100
AcDbEntity
  8
SHADE
 62
     4
420
    65535
370
    25
100
AcDbSpline
210
0.0
220
0.0
230
1.0
 70
     8
 71
     3
 72
    38
 73
    34
 74
     0
 42
0.0000000001
 43
0.0000000001
 40
0.0
 40
0.0
 40
0.0
 40
0.0
 40
1.0
 40
1.0
 40
1.0
 40
2.0
 40
2.0
 40
2.0
 40
3.0
 40
3.0
 40
3.0
 40
4.0
 40
4.0
 40
4.0
 40
5.0
 40
5.0
 40
5.0
 40
6.0
 40
6.0
 40
6.0
 40
7.0
 40
7.0
 40
7.0
 40
8.0
 40
8.0
 40
8.0
 40
9.0
 40
9.0
 40
9.0
 40
10.0
 40
10.0
 40
10.0
 40
11.0
 40
11.0
 40
11.0
 40
11.0
 10
455.9885668869546
 20
235.1452058262084
 30
0.0
 10
455.807878426207
 20
233.8841305932426
 30
0.0
 10
455.6271899654531
 20
232.6230553602769
 30
0.0
 10
455.4465015047054
 20
231.3619801273115
 30
0.0
 10
455.0306661356422
 20
228.4597489458493
 30
0.0
 10
454.6148307665797
 20
225.5575177643866
 30
0.0
 10
454.0164239829604
 20
222.6867814702766
 30
0.0
 10
453.4180171993385
 20
219.8160451761538
 30
0.0
 10
452.6370390011581
 20
216.9768037693835
 30
0.0
 10
451.6069438949394
 20
214.2310970412488
 30
0.0
 10
450.7667899337014
 20
211.9916762633847
 30
0.0
 10
449.7609192574087
 20
209.8144763111129
 30
0.0
 10
448.6124206527152
 20
207.7152036133203
 30
0.0
 10
447.4639220480205
 20
205.6159309155278
 30
0.0
 10
446.1727955149245
 20
203.5945854722146
 30
0.0
 10
444.7194545349298
 20
201.692841002338
 30
0.0
 10
442.0475600576854
 20
198.1965792054603
 30
0.0
 10
438.8273973320493
 20
195.1045564727714
 30
0.0
 10
435.2883112583465
 20
192.4808095487256
 30
0.0
 10
431.7492251846045
 20
189.8570626246515
 30
0.0
 10
427.891215762789
 20
187.7015915092302
 30
0.0
 10
423.9173205533057
 20
185.8093361435947
 30
0.0
 10
420.208675939074
 20
184.0433855332783
 30
0.0
 10
416.3990995773446
 20
182.5066849986563
 30
0.0
 10
412.5048648692799
 20
181.2120051291525
 30
0.0
 10
408.6106301612891
 20
179.9173252596725
 30
0.0
 10
404.6317371069661
 20
178.8646660553018
 30
0.0
 10
400.5987821279937
 20
178.1096204095917
 30
0.0
 10
396.367914894891
 20
177.3175218370593
 30
0.0
 10
392.077549499846
 20
176.8529635773145
 30
0.0
 10
387.7810537862239
 20
176.5905660866089
 30
0.0
 10
383.484558072603
 20
176.328168595904
 30
0.0
 10
379.1819320404051
 20
176.2679318742376
 30
0.0
 10
374.8793060082154
 20
176.2076951525719
 30
0.0
  0
SPLINE
  5
BC
330
70
100
AcDbEntity
  8
SHADE
 62
     4
420
    65535
370
    25
100
AcDbSpline
210
0.0
220
0.0
230
1.0
 70
     8
 71
     3
 72
    38
 73
    34
 74
     0
 42
0.0000000001
 43
0.0000000001
 40
0.0
 40
0.0
 40
0.0
 40
0.0
 40
1.0
 40
1.0
 40
1.0
 40
2.0
 40
2.0
 40
2.0
 40
3.0
 40
3.0
 40
3.0
 40
4.0
 40
4.0
 40
4.0
 40
5.0
 40
5.0
 40
5.0
 40
6.0
 40
6.0
 40
6.0
 40
7.0
 40
7.0
 40
7.0
 40
8.0
 40
8.0
 40
8.0
 40
9.0
 40
9.0
 40
9.0
 40
10.0
 40
10.0
 40
10.0
 40
11.0
 40
11.0
 40
11.0
 40
11.0
 10
451.3884460504532
 20
236.231301996225
 30
0.0
 10
451.1558851768971
 20
234.608194706587
 30
0.0
 10
450.92332430335
 20
232.9850874169492
 30
0.0
 10
450.6907634297927
 20
231.3619801273115
 30
0.0
 10
450.2749280607295
 20
228.4597489458484
 30
0.0
 10
449.8590926916675
 20
225.5575177643863
 30
0.0
 10
449.2606859080496
 20
222.6867814702763
 30
0.0
 10
448.6622791244297
 20
219.8160451761538
 30
0.0
 10
447.8813009262511
 20
216.9768037693838
 30
0.0
 10
446.8512058200325
 20
214.2310970412488
 30
0.0
 10
446.0110518587938
 20
211.9916762633847
 30
0.0
 10
445.0051811824997
 20
209.8144763111126
 30
0.0
 10
443.8566825778057
 20
207.7152036133203
 30
0.0
 10
442.7081839731116
 20
205.6159309155275
 30
0.0
 10
441.4170574400176
 20
203.5945854722146
 30
0.0
 10
439.9637164600235
 20
201.6928410023383
 30
0.0
 10
437.2918219827804
 20
198.1965792054606
 30
0.0
 10
434.0716592571397
 20
195.1045564727711
 30
0.0
 10
430.5325731834351
 20
192.4808095487253
 30
0.0
 10
426.9934871096918
 20
189.8570626246509
 30
0.0
 10
423.1354776878768
 20
187.7015915092302
 30
0.0
 10
419.1615824783936
 20
185.8093361435947
 30
0.0
 10
415.4529378641619
 20
184.0433855332783
 30
0.0
 10
411.6433615024319
 20
182.5066849986563
 30
0.0
 10
407.7491267943671
 20
181.2120051291525
 30
0.0
 10
403.8548920863757
 20
179.9173252596725
 30
0.0
 10
399.8759990320528
 20
178.8646660553018
 30
0.0
 10
395.8430440530798
 20
178.1096204095917
 30
0.0
 10
391.6121768199764
 20
177.3175218370593
 30
0.0
 10
387.3218114249294
 20
176.8529635773151
 30
0.0
 10
383.0253157113118
 20
176.5905660866095
 30
0.0
 10
378.7288199976928
 20
176.328168595904
 30
0.0
 10
374.4261939655019
 20
176.2679318742382
 30
0.0
 10
370.1235679333033
 20
176.2076951525719
 30
0.0
  0
SPLINE
  5
BD
330
70
100
AcDbEntity
  8
SHADE
 62
     4
420
    65535
370
    25
100
AcDbSpline
210
0.0
220
0.0
230
1.0
 70
     8
 71
     3
 72
    38
 73
    34
 74
     0
 42
0.0000000001
 43
0.0000000001
 40
0.0
 40
0.0
 40
0.0
 40
0.0
 40
1.0
 40
1.0
 40
1.0
 40
2.0
 40
2.0
 40
2.0
 40
3.0
 40
3.0
 40
3.0
 40
4.0
 40
4.0
 40
4.0
 40
5.0
 40
5.0
 40
5.0
 40
6.0
 40
6.0
 40
6.0
 40
7.0
 40
7.0
 40
7.0
 40
8.0
 40
8.0
 40
8.0
 40
9.0
 40
9.0
 40
9.0
 40
10.0
 40
10.0
 40
10.0
 40
11.0
 40
11.0
 40
11.0
 40
11.0
 10
445.9159484072058
 20
237.2901944877318
 30
0.0
 10
445.6328143848891
 20
235.3141230342578
 30
0.0
 10
445.3496803625889
 20
233.3380515807851
 30
0.0
 10
445.0665463402722
 20
231.3619801273115
 30
0.0
 10
444.650710972389
 20
228.4597489043632
 30
0.0
 10
444.2348756045028
 20
225.5575176814156
 30
0.0
 10
443.6364688185348
 20
222.686781470277
 30
0.0
 10
443.0380620325638
 20
219.8160452591255
 30
0.0
 10
442.2570838285098
 20
216.9768040597834
 30
0.0
 10
441.2269887305107
 20
214.2310970412491
 30
0.0
 10
440.3868347759758
 20
211.9916760265327
 30
0.0
 10
439.3809641157627
 20
209.8144755062449
 30
0.0
 10
438.2324654882814
 20
207.7152036133207
 30
0.0
 10
437.0839668607999
 20
205.6159317203962
 30
0.0
 10
435.7928402660507
 20
203.5945884548353
 30
0.0
 10
434.3394993704953
 20
201.6928410023383
 30
0.0
 10
431.6676050484881
 20
198.1965737220624
 30
0.0
 10
428.447442971867
 20
195.1045280644424
 30
0.0
 10
424.9083560939133
 20
192.4808095487256
 30
0.0
 10
421.3692692159209
 20
189.8570910329799
 30
0.0
 10
417.5112575365882
 20
187.7016996591482
 30
0.0
 10
413.5373653888724
 20
185.8093361435947
 30
0.0
 10
409.8287236320393
 20
184.0432846021806
 30
0.0
 10
406.0191547605856
 20
182.5063194906977
 30
0.0
 10
402.1249097048499
 20
181.2120051291525
 30
0.0
 10
398.2306646491868
 20
179.9176907676318
 30
0.0
 10
394.2517434092449
 20
178.866027156039
 30
0.0
 10
390.2188269635619
 20
178.1096204095917
 30
0.0
 10
385.9880001547207
 20
177.3160939419948
 30
0.0
 10
381.6977486118154
 20
176.8475141145897
 30
0.0
 10
377.4010986217919
 20
176.5905660866095
 30
0.0
 10
373.1048019483077
 20
176.3336391876457
 30
0.0
 10
368.8021078799601
 20
176.2883092842754
 30
0.0
 10
364.4994138116073
 20
176.2429793809057
 30
0.0
  0
SPLINE
  5
BE
330
70
100
AcDbEntity
  8
SHADE
 62
     4
420
    65535
370
    25
100
AcDbSpline
210
0.0
220
0.0
230
1.0
 70
     8
 71
     3
 72
    38
 73
    34
 74
     0
 42
0.0000000001
 43
0.0000000001
 40
0.0
 40
0.0
 40
0.0
 40
0.0
 40
1.0
 40
1.0
 40
1.0
 40
2.0
 40
2.0
 40
2.0
 40
3.0
 40
3.0
 40
3.0
 40
4.0
 40
4.0
 40
4.0
 40
5.0
 40
5.0
 40
5.0
 40
6.0
 40
6.0
 40
6.0
 40
7.0
 40
7.0
 40
7.0
 40
8.0
 40
8.0
 40
8.0
 40
9.0
 40
9.0
 40
9.0
 40
10.0
 40
10.0
 40
10.0
 40
11.0
 40
11.0
 40
11.0
 40
11.0
 10
439.6125598164076
 20
238.3042167472769
 30
0.0
 10
439.2809956644292
 20
235.990137873955
 30
0.0
 10
438.9494315124436
 20
233.676059000633
 30
0.0
 10
438.6178673604633
 20
231.3619801273115
 30
0.0
 10
438.2020319929377
 20
228.4597488908304
 30
0.0
 10
437.7861966254081
 20
225.5575176543493
 30
0.0
 10
437.1877898387228
 20
222.6867814702763
 30
0.0
 10
436.5893830520342
 20
219.8160452861911
 30
0.0
 10
435.808404846188
 20
216.9768041545142
 30
0.0
 10
434.7783097506999
 20
214.2310970412494
 30
0.0
 10
433.9381557982132
 20
211.9916759492702
 30
0.0
 10
432.9322851429099
 20
209.8144752436908
 30
0.0
 10
431.7837865084724
 20
207.7152036133207
 30
0.0
 10
430.6352878740344
 20
205.6159319829502
 30
0.0
 10
429.3441612604623
 20
203.5945894277883
 30
0.0
 10
427.8908203906897
 20
201.6928410023386
 30
0.0
 10
425.2189261160841
 20
198.1965719333373
 30
0.0
 10
421.998764237628
 20
195.104518797434
 30
0.0
 10
418.4596771141094
 20
192.4808095487256
 30
0.0
 10
414.9205899905518
 20
189.8571002999886
 30
0.0
 10
411.0625776219252
 20
187.7017349384568
 30
0.0
 10
407.0886864090623
 20
185.8093361435947
 30
0.0
 10
403.380045524682
 20
184.043251677704
 30
0.0
 10
399.5704789402468
 20
182.5062002592783
 30
0.0
 10
395.6762307250366
 20
181.2120051291525
 30
0.0
 10
391.7819825098982
 20
179.9178099990512
 30
0.0
 10
387.8030526639887
 20
178.8664711572401
 30
0.0
 10
383.7701479837479
 20
178.1096204095917
 30
0.0
 10
379.5393335177239
 20
177.3156281519862
 30
0.0
 10
375.2491167375083
 20
176.8457364592486
 30
0.0
 10
370.9524196419786
 20
176.5905660866095
 30
0.0
 10
366.6561841663519
 20
176.3354231284513
 30
0.0
 10
362.3534697677749
 20
176.294955355275
 30
0.0
 10
358.0507553691991
 20
176.2544875820992
 30
0.0
  0
SPLINE
  5
BF
330
70
100
AcDbEntity
  8
SHADE
 62
     4
420
    65535
370
    25
100
AcDbSpline
210
0.0
220
0.0
230
1.0
 70
     8
 71
     3
 72
    44
 73
    40
 74
     0
 42
0.0000000001
 43
0.0000000001
 40
0.0
 40
0.0
 40
0.0
 40
0.0
 40
1.0
 40
1.0
 40
1.0
 40
2.0
 40
2.0
 40
2.0
 40
3.0
 40
3.0
 40
3.0
 40
4.0
 40
4.0
 40
4.0
 40
5.0
 40
5.0
 40
5.0
 40
6.0
 40
6.0
 40
6.0
 40
7.0
 40
7.0
 40
7.0
 40
8.0
 40
8.0
 40
8.0
 40
9.0
 40
9.0
 40
9.0
 40
10.0
 40
10.0
 40
10.0
 40
11.0
 40
11.0
 40
11.0
 40
12.0
 40
12.0
 40
12.0
 40
13.0
 40
13.0
 40
13.0
 40
13.0
 10
432.5268403644482
 20
239.260041412291
 30
0.0
 10
432.1496256252382
 20
236.6273543172974
 30
0.0
 10
431.7724108860281
 20
233.9946672223048
 30
0.0
 10
431.3951961468181
 20
231.3619801273115
 30
0.0
 10
430.979360779673
 20
228.4597488756716
 30
0.0
 10
430.5635254125349
 20
225.5575176240323
 30
0.0
 10
429.9651186250756
 20
222.6867814702763
 30
0.0
 10
429.366711837614
 20
219.8160453165075
 30
0.0
 10
428.5857336298298
 20
216.9768042606224
 30
0.0
 10
427.5556385370522
 20
214.2310970412494
 30
0.0
 10
426.7154845867755
 20
211.9916758627275
 30
0.0
 10
425.7096139367758
 20
209.8144749496027
 30
0.0
 10
424.5611152948227
 20
207.7152036133207
 30
0.0
 10
423.4126166528704
 20
205.6159322770386
 30
0.0
 10
422.1214900189655
 20
203.5945905175986
 30
0.0
 10
420.6681491770419
 20
201.6928410023386
 30
0.0
 10
417.996254953633
 20
198.1965699297741
 30
0.0
 10
414.7760932892228
 20
195.1045084174014
 30
0.0
 10
411.2370059004528
 20
192.4808095487253
 30
0.0
 10
407.6979185116443
 20
189.8571106800211
 30
0.0
 10
403.8399053984703
 20
187.7017744550236
 30
0.0
 10
399.8660151954121
 20
185.8093361435947
 30
0.0
 10
396.1573752534334
 20
184.0432147987995
 30
0.0
 10
392.3478111393689
 20
182.5060667074451
 30
0.0
 10
388.4535595113844
 20
181.2120051291532
 30
0.0
 10
384.5593078834717
 20
179.9179435508843
 30
0.0
 10
380.5803687416417
 20
178.8669684856682
 30
0.0
 10
376.5474767700995
 20
178.1096204095917
 30
0.0
 10
372.3166756364396
 20
177.3151064177845
 30
0.0
 10
368.0264964058965
 20
176.8437452967623
 30
0.0
 10
363.7297484283334
 20
176.5905660866095
 30
0.0
 10
360.41084596686
 20
176.3950049068156
 30
0.0
 10
357.0880243565917
 20
176.3296188381253
 30
0.0
 10
353.7643112419893
 20
176.2938442188038
 30
0.0
 10
353.763997278166
 20
176.2938408394697
 30
0.0
 10
353.7636833143349
 20
176.2938374604007
 30
0.0
 10
353.7633693505051
 20
176.2938340813303
 30
0.0
 10
352.7635988711606
 20
176.2830739435571
 30
0.0
 10
351.7638283918097
 20
176.2723138057833
 30
0.0
 10
350.7640579124666
 20
176.2615536680095
 30
0.0
  0
SPLINE
  5
C0
330
70
100
AcDbEntity
  8
SHADE
 62
     4
420
    65535
370
    25
100
AcDbSpline
210
0.0
220
0.0
230
1.0
 70
     8
 71
     3
 72
    44
 73
    40
 74
     0
 42
0.0000000001
 43
0.0000000001
 40
0.0
 40
0.0
 40
0.0
 40
0.0
 40
1.0
 40
1.0
 40
1.0
 40
2.0
 40
2.0
 40
2.0
 40
3.0
 40
3.0
 40
3.0
 40
4.0
 40
4.0
 40
4.0
 40
5.0
 40
5.0
 40
5.0
 40
6.0
 40
6.0
 40
6.0
 40
7.0
 40
7.0
 40
7.0
 40
8.0
 40
8.0
 40
8.0
 40
9.0
 40
9.0
 40
9.0
 40
10.0
 40
10.0
 40
10.0
 40
11.0
 40
11.0
 40
11.0
 40
12.0
 40
12.0
 40
12.0
 40
13.0
 40
13.0
 40
13.0
 40
13.0
 10
424.7137713626433
 20
240.1468793279327
 30
0.0
 10
424.2942008732379
 20
237.2185795943918
 30
0.0
 10
423.8746303838403
 20
234.2902798608523
 30
0.0
 10
423.4550598944426
 20
231.3619801273115
 30
0.0
 10
423.0392245277082
 20
228.4597488590073
 30
0.0
 10
422.6233891609789
 20
225.5575175907024
 30
0.0
 10
422.0249823727015
 20
222.686781470277
 30
0.0
 10
421.4265755844208
 20
219.8160453498386
 30
0.0
 10
420.6455973745916
 20
216.9768043772797
 30
0.0
 10
419.6155022846735
 20
214.2310970412491
 30
0.0
 10
418.7753483367294
 20
211.9916757675802
 30
0.0
 10
417.7694776923246
 20
209.8144746262759
 30
0.0
 10
416.6209790424505
 20
207.7152036133207
 30
0.0
 10
415.4724803925757
 20
205.6159326003648
 30
0.0
 10
414.1813537372315
 20
203.5945917157579
 30
0.0
 10
412.7280129246702
 20
201.6928410023383
 30
0.0
 10
410.056118755243
 20
198.1965677270187
 30
0.0
 10
406.8359573165164
 20
195.1044970053882
 30
0.0
 10
403.2968696480818
 20
192.4808095487253
 30
0.0
 10
399.7577819796087
 20
189.8571220920341
 30
0.0
 10
395.8997680814212
 20
187.7018179003214
 30
0.0
 10
391.9258789430366
 20
185.8093361435947
 30
0.0
 10
388.2172399946672
 20
184.0431742533992
 30
0.0
 10
384.4076784852123
 20
182.5059198779098
 30
0.0
 10
380.513423259012
 20
181.2120051291525
 30
0.0
 10
376.6191680328856
 20
179.9180903804197
 30
0.0
 10
372.6402190900165
 20
178.8675152584106
 30
0.0
 10
368.6073405177258
 20
178.1096204095917
 30
0.0
 10
364.3765534408692
 20
177.3145328128491
 30
0.0
 10
360.0864138003435
 20
176.8415561732114
 30
0.0
 10
355.7896121759611
 20
176.5905660866095
 30
0.0
 10
355.1045315472131
 20
176.5505483102793
 30
0.0
 10
354.4192815641199
 20
176.5161736559009
 30
0.0
 10
353.7338892328999
 20
176.4865422387831
 30
0.0
 10
353.7327100425362
 20
176.4864912591036
 30
0.0
 10
353.7315308517527
 20
176.4864402934639
 30
0.0
 10
353.7303516609764
 20
176.4863893278242
 30
0.0
 10
352.9018458590068
 20
176.4505805945831
 30
0.0
 10
352.0733400570431
 20
176.414771861342
 30
0.0
 10
351.2448342550793
 20
176.3789631281002
 30
0.0
  0
SPLINE
  5
C1
330
70
100
AcDbEntity
  8
SHADE
 62
     4
420
    65535
370
    25
100
AcDbSpline
210
0.0
220
0.0
230
1.0
 70
     8
 71
     3
 72
    41
 73
    37
 74
     0
 42
0.0000000001
 43
0.0000000001
 40
0.0
 40
0.0
 40
0.0
 40
0.0
 40
1.0
 40
1.0
 40
1.0
 40
2.0
 40
2.0
 40
2.0
 40
3.0
 40
3.0
 40
3.0
 40
4.0
 40
4.0
 40
4.0
 40
5.0
 40
5.0
 40
5.0
 40
6.0
 40
6.0
 40
6.0
 40
7.0
 40
7.0
 40
7.0
 40
8.0
 40
8.0
 40
8.0
 40
9.0
 40
9.0
 40
9.0
 40
10.0
 40
10.0
 40
10.0
 40
11.0
 40
11.0
 40
11.0
 40
12.0
 40
12.0
 40
12.0
 40
12.0
 10
416.2341941522036
 20
240.9556501062112
 30
0.0
 10
415.7759964131862
 20
237.7577601132449
 30
0.0
 10
415.3177986741765
 20
234.5598701202782
 30
0.0
 10
414.8596009351583
 20
231.3619801273115
 30
0.0
 10
414.4437655660958
 20
228.4597489458484
 30
0.0
 10
414.0279301970338
 20
225.5575177643863
 30
0.0
 10
413.4295234134146
 20
222.6867814702763
 30
0.0
 10
412.8311166297928
 20
219.8160451761538
 30
0.0
 10
412.0501384316116
 20
216.9768037693835
 30
0.0
 10
411.0200433253917
 20
214.2310970412488
 30
0.0
 10
410.1798893641516
 20
211.9916762633847
 30
0.0
 10
409.174018687857
 20
209.8144763111126
 30
0.0
 10
408.0255200831623
 20
207.71520361332
 30
0.0
 10
406.877021478467
 20
205.6159309155275
 30
0.0
 10
405.585894945371
 20
203.5945854722143
 30
0.0
 10
404.132553965377
 20
201.692841002338
 30
0.0
 10
401.4606594881337
 20
198.1965792054596
 30
0.0
 10
398.2404967624996
 20
195.1045564727708
 30
0.0
 10
394.7014106887962
 20
192.4808095487249
 30
0.0
 10
391.162324615055
 20
189.8570626246509
 30
0.0
 10
387.3043151932368
 20
187.7015915092302
 30
0.0
 10
383.3304199837548
 20
185.8093361435941
 30
0.0
 10
379.6217753695225
 20
184.0433855332783
 30
0.0
 10
375.8121990077956
 20
182.5066849986563
 30
0.0
 10
371.9179642997303
 20
181.2120051291525
 30
0.0
 10
368.0237295917382
 20
179.9173252596725
 30
0.0
 10
364.0448365374107
 20
178.8646660553018
 30
0.0
 10
360.0118815584384
 20
178.1096204095917
 30
0.0
 10
357.7924935235819
 20
177.6941088850155
 30
0.0
 10
355.5567331305985
 20
177.3687279985484
 30
0.0
 10
353.3123039343986
 20
177.1153794321946
 30
0.0
 10
353.3106462276526
 20
177.1151923121791
 30
0.0
 10
353.3089885161876
 20
177.1150052314574
 30
0.0
 10
353.3073308047142
 20
177.1148181507363
 30
0.0
 10
353.2617813968012
 20
177.109677680733
 30
0.0
 10
353.2162319888952
 20
177.104537210729
 30
0.0
 10
353.1706825809814
 20
177.099396740725
 30
0.0
  0
SPLINE
  5
C2
330
70
100
AcDbEntity
  8
SHADE
 62
     4
420
    65535
370
    25
100
AcDbSpline
210
0.0
220
0.0
230
1.0
 70
     8
 71
     3
 72
    32
 73
    28
 74
     0
 42
0.0000000001
 43
0.0000000001
 40
0.0
 40
0.0
 40
0.0
 40
0.0
 40
1.0
 40
1.0
 40
1.0
 40
2.0
 40
2.0
 40
2.0
 40
3.0
 40
3.0
 40
3.0
 40
4.0
 40
4.0
 40
4.0
 40
5.0
 40
5.0
 40
5.0
 40
6.0
 40
6.0
 40
6.0
 40
7.0
 40
7.0
 40
7.0
 40
8.0
 40
8.0
 40
8.0
 40
9.0
 40
9.0
 40
9.0
 40
9.0
 10
407.1542661225716
 20
241.6785814159084
 30
0.0
 10
406.6615408782037
 20
238.2397143197088
 30
0.0
 10
406.1688156338266
 20
234.8008472235101
 30
0.0
 10
405.6760903894573
 20
231.3619801273115
 30
0.0
 10
405.2602550203942
 20
228.4597489458484
 30
0.0
 10
404.8444196513322
 20
225.5575177643863
 30
0.0
 10
404.246012867713
 20
222.6867814702763
 30
0.0
 10
403.6476060840912
 20
219.8160451761538
 30
0.0
 10
402.86662788591
 20
216.9768037693835
 30
0.0
 10
401.83653277969
 20
214.2310970412488
 30
0.0
 10
400.9963788184501
 20
211.9916762633847
 30
0.0
 10
399.9905081421561
 20
209.8144763111126
 30
0.0
 10
398.8420095374607
 20
207.71520361332
 30
0.0
 10
397.6935109327661
 20
205.6159309155275
 30
0.0
 10
396.4023843996701
 20
203.5945854722143
 30
0.0
 10
394.9490434196754
 20
201.692841002338
 30
0.0
 10
392.2771489424322
 20
198.1965792054596
 30
0.0
 10
389.056986216798
 20
195.1045564727708
 30
0.0
 10
385.5179001430959
 20
192.4808095487249
 30
0.0
 10
381.9788140693559
 20
189.8570626246509
 30
0.0
 10
378.1208046475409
 20
187.7015915092302
 30
0.0
 10
374.1469094380577
 20
185.8093361435947
 30
0.0
 10
370.4382648238247
 20
184.0433855332783
 30
0.0
 10
366.628688462094
 20
182.5066849986563
 30
0.0
 10
362.7344537540293
 20
181.2120051291525
 30
0.0
 10
359.7886326780289
 20
180.2326354886012
 30
0.0
 10
356.7943677950933
 20
179.3917566511767
 30
0.0
 10
353.7649032330402
 20
178.6650521374303
 30
0.0
  0
SPLINE
  5
C3
330
70
100
AcDbEntity
  8
SHADE
 62
     4
420
    65535
370
    25
100
AcDbSpline
210
0.0
220
0.0
230
1.0
 70
     8
 71
     3
 72
    29
 73
    25
 74
     0
 42
0.0000000001
 43
0.0000000001
 40
0.0
 40
0.0
 40
0.0
 40
0.0
 40
1.0
 40
1.0
 40
1.0
 40
2.0
 40
2.0
 40
2.0
 40
3.0
 40
3.0
 40
3.0
 40
4.0
 40
4.0
 40
4.0
 40
5.0
 40
5.0
 40
5.0
 40
6.0
 40
6.0
 40
6.0
 40
7.0
 40
7.0
 40
7.0
 40
8.0
 40
8.0
 40
8.0
 40
8.0
 10
397.5449061135356
 20
242.3090106528007
 30
0.0
 10
397.022071301964
 20
238.6600004776374
 30
0.0
 10
396.4992364903989
 20
235.0109903024738
 30
0.0
 10
395.976401678835
 20
231.3619801273105
 30
0.0
 10
395.5605663097796
 20
228.4597489458484
 30
0.0
 10
395.1447309407177
 20
225.557517764386
 30
0.0
 10
394.5463241570965
 20
222.6867814702757
 30
0.0
 10
393.9479173734733
 20
219.8160451761532
 30
0.0
 10
393.1669391752896
 20
216.9768037693831
 30
0.0
 10
392.1368440690697
 20
214.2310970412488
 30
0.0
 10
391.2966901078304
 20
211.9916762633847
 30
0.0
 10
390.2908194315383
 20
209.8144763111126
 30
0.0
 10
389.1423208268448
 20
207.71520361332
 30
0.0
 10
387.9938222221508
 20
205.6159309155275
 30
0.0
 10
386.7026956890548
 20
203.5945854722143
 30
0.0
 10
385.2493547090607
 20
201.692841002338
 30
0.0
 10
382.5774602318176
 20
198.1965792054596
 30
0.0
 10
379.357297506184
 20
195.1045564727705
 30
0.0
 10
375.8182114324813
 20
192.3274694223347
 30
0.0
 10
372.2791253587406
 20
189.5503823718691
 30
0.0
 10
368.4211159369231
 20
187.0882310036641
 30
0.0
 10
364.4472207274379
 20
184.950909079688
 30
0.0
 10
360.9915275191662
 20
183.0922971970839
 30
0.0
 10
357.4482013038261
 20
181.4793218291476
 30
0.0
 10
353.3866230080739
 20
180.0134984453898
 30
0.0
  0
SPLINE
  5
C4
330
70
100
AcDbEntity
  8
SHADE
 62
     4
420
    65535
370
    25
100
AcDbSpline
210
0.0
220
0.0
230
1.0
 70
     8
 71
     3
 72
    29
 73
    25
 74
     0
 42
0.0000000001
 43
0.0000000001
 40
0.0
 40
0.0
 40
0.0
 40
0.0
 40
1.0
 40
1.0
 40
1.0
 40
2.0
 40
2.0
 40
2.0
 40
3.0
 40
3.0
 40
3.0
 40
4.0
 40
4.0
 40
4.0
 40
5.0
 40
5.0
 40
5.0
 40
6.0
 40
6.0
 40
6.0
 40
7.0
 40
7.0
 40
7.0
 40
8.0
 40
8.0
 40
8.0
 40
8.0
 10
387.4812177240123
 20
242.8412872763805
 30
0.0
 10
386.932961155602
 20
239.0148515600235
 30
0.0
 10
386.3847045871839
 20
235.1884158436682
 30
0.0
 10
385.8364480187749
 20
231.3619801273115
 30
0.0
 10
385.4206126497201
 20
228.4597489458484
 30
0.0
 10
385.0047772806575
 20
225.5575177643863
 30
0.0
 10
384.4063704970376
 20
222.6867814702763
 30
0.0
 10
383.8079637134157
 20
219.8160451761538
 30
0.0
 10
383.0269855152352
 20
216.9768037693835
 30
0.0
 10
381.9968904090153
 20
214.2310970412488
 30
0.0
 10
381.1567364477753
 20
211.9916762633847
 30
0.0
 10
380.1508657714807
 20
209.8144763111126
 30
0.0
 10
379.0023671667853
 20
207.71520361332
 30
0.0
 10
377.85386856209
 20
205.6159309155275
 30
0.0
 10
376.5627420289947
 20
203.5945854722143
 30
0.0
 10
375.1094010490005
 20
201.5277755530855
 30
0.0
 10
372.4375065717574
 20
197.7280492091315
 30
0.0
 10
369.2173438461239
 20
193.7746575844582
 30
0.0
 10
365.6782577724198
 20
190.4624577369153
 30
0.0
 10
362.1391716986772
 20
187.1502578893359
 30
0.0
 10
358.2811622768578
 20
184.4792498189007
 30
0.0
 10
354.3371752969169
 20
182.3197145320447
 30
0.0
 10
353.3710358848337
 20
181.7907036192228
 30
0.0
 10
352.3997371373826
 20
181.2923851298649
 30
0.0
 10
351.4462700496823
 20
180.8259073564663
 30
0.0
  0
SPLINE
  5
C5
330
70
100
AcDbEntity
  8
SHADE
 62
     4
420
    65535
370
    25
100
AcDbSpline
210
0.0
220
0.0
230
1.0
 70
     8
 71
     3
 72
    26
 73
    22
 74
     0
 42
0.0000000001
 43
0.0000000001
 40
0.0
 40
0.0
 40
0.0
 40
0.0
 40
1.0
 40
1.0
 40
1.0
 40
2.0
 40
2.0
 40
2.0
 40
3.0
 40
3.0
 40
3.0
 40
4.0
 40
4.0
 40
4.0
 40
5.0
 40
5.0
 40
5.0
 40
6.0
 40
6.0
 40
6.0
 40
7.0
 40
7.0
 40
7.0
 40
7.0
 10
377.0418886290372
 20
243.270726720366
 30
0.0
 10
376.4731218509965
 20
239.3011445226814
 30
0.0
 10
375.9043550729649
 20
235.3315623249958
 30
0.0
 10
375.335588294932
 20
231.3619801273115
 30
0.0
 10
374.9197529258695
 20
228.4597489458484
 30
0.0
 10
374.5039175568063
 20
225.5575177643863
 30
0.0
 10
373.9487751783934
 20
222.6867814702763
 30
0.0
 10
373.3936327999779
 20
219.8160451761538
 30
0.0
 10
372.6991834122113
 20
216.9768037693835
 30
0.0
 10
371.9148868465434
 20
214.2310970412488
 30
0.0
 10
371.2752081775984
 20
211.9916762633847
 30
0.0
 10
370.5757616699478
 20
209.8144763111126
 30
0.0
 10
369.7600335891825
 20
207.71520361332
 30
0.0
 10
368.9443055084165
 20
205.6159309155275
 30
0.0
 10
368.0122958545358
 20
203.5945854722143
 30
0.0
 10
366.9363896570285
 20
201.5277755530855
 30
0.0
 10
364.9583900913908
 20
197.7280492091312
 30
0.0
 10
362.4940349179003
 20
193.7746575844582
 30
0.0
 10
358.639748713203
 20
189.7645941451272
 30
0.0
 10
355.7924269544076
 20
186.8021932546471
 30
0.0
 10
352.1865653067619
 20
183.8088643317494
 30
0.0
 10
348.7169853165816
 20
181.3784639853498
 30
0.0
  0
SPLINE
  5
C6
330
70
100
AcDbEntity
  8
SHADE
 62
     4
420
    65535
370
    25
100
AcDbSpline
210
0.0
220
0.0
230
1.0
 70
     8
 71
     3
 72
    29
 73
    25
 74
     0
 42
0.0000000001
 43
0.0000000001
 40
0.0
 40
0.0
 40
0.0
 40
0.0
 40
1.0
 40
1.0
 40
1.0
 40
2.0
 40
2.0
 40
2.0
 40
3.0
 40
3.0
 40
3.0
 40
4.0
 40
4.0
 40
4.0
 40
5.0
 40
5.0
 40
5.0
 40
6.0
 40
6.0
 40
6.0
 40
7.0
 40
7.0
 40
7.0
 40
8.0
 40
8.0
 40
8.0
 40
8.0
 10
364.1413104061472
 20
243.6449458922653
 30
0.0
 10
364.2794263512837
 20
239.5540606660997
 30
0.0
 10
364.4175422964189
 20
235.4631754399338
 30
0.0
 10
364.5556582415458
 20
231.3722902137691
 30
0.0
 10
364.5557742708209
 20
231.3688535182838
 30
0.0
 10
364.5558903000973
 20
231.3654168227972
 30
0.0
 10
364.5560059722182
 20
231.3619801273115
 30
0.0
 10
364.6536891255973
 20
228.4597489458484
 30
0.0
 10
364.4966710487301
 20
225.5575177643863
 30
0.0
 10
364.2416873459398
 20
222.6867814702763
 30
0.0
 10
363.9867036431484
 20
219.8160451761538
 30
0.0
 10
363.6337543144333
 20
216.9768037693835
 30
0.0
 10
363.045573471226
 20
214.2310970412488
 30
0.0
 10
362.5658483833561
 20
211.9916762633847
 30
0.0
 10
361.929643375412
 20
209.8144763111126
 30
0.0
 10
361.2388600809162
 20
207.71520361332
 30
0.0
 10
360.5480767864202
 20
205.6159309155275
 30
0.0
 10
359.8027152053718
 20
203.5945854722143
 30
0.0
 10
358.6652871497424
 20
201.1051198446614
 30
0.0
 10
356.5741827345146
 20
196.5283621855109
 30
0.0
 10
353.1579337136045
 20
190.3694061565053
 30
0.0
 10
348.6111933479459
 20
184.7483575271712
 30
0.0
 10
347.765268092178
 20
183.7025562240291
 30
0.0
 10
346.8802109383113
 20
182.6753745570729
 30
0.0
 10
345.9767449375101
 20
181.7022090368513
 30
0.0
  0
SPLINE
  5
C7
330
70
100
AcDbEntity
  8
SHADE
 62
     4
420
    65535
370
    25
100
AcDbSpline
210
0.0
220
0.0
230
1.0
 70
     8
 71
     3
 72
    26
 73
    22
 74
     0
 42
0.0000000001
 43
0.0000000001
 40
0.0
 40
0.0
 40
0.0
 40
0.0
 40
1.0
 40
1.0
 40
1.0
 40
2.0
 40
2.0
 40
2.0
 40
3.0
 40
3.0
 40
3.0
 40
4.0
 40
4.0
 40
4.0
 40
5.0
 40
5.0
 40
5.0
 40
6.0
 40
6.0
 40
6.0
 40
7.0
 40
7.0
 40
7.0
 40
7.0
 10
353.1617823923655
 20
243.8364390066568
 30
0.0
 10
353.3018111001912
 20
239.680239530928
 30
0.0
 10
353.4418398080112
 20
235.5240400551986
 30
0.0
 10
353.5818685158286
 20
231.3678405794692
 30
0.0
 10
353.5819343316958
 20
231.3658870954169
 30
0.0
 10
353.5820001475552
 20
231.3639336113642
 30
0.0
 10
353.5820658978176
 20
231.3619801273105
 30
0.0
 10
353.6797490511968
 20
228.4597489458484
 30
0.0
 10
353.6326551087807
 20
225.557517764386
 30
0.0
 10
353.5558874213067
 20
222.6867814702757
 30
0.0
 10
353.4791197338327
 20
219.8160451761525
 30
0.0
 10
353.3726783013021
 20
216.9768037693825
 30
0.0
 10
352.9986739714658
 20
214.2310970412478
 30
0.0
 10
352.6936329928857
 20
211.9916762633838
 30
0.0
 10
352.2106047200635
 20
209.8144763111116
 30
0.0
 10
351.7662150351114
 20
207.7152036133194
 30
0.0
 10
351.3218253501599
 20
205.6159309155269
 30
0.0
 10
350.9160742530785
 20
203.5945854722136
 30
0.0
 10
350.0205540088304
 20
200.0834532786668
 30
0.0
 10
348.9156312437534
 20
195.7513011952693
 30
0.0
 10
347.0651109659838
 20
189.1511800047068
 30
0.0
 10
343.1288993166429
 20
181.8923726957422
 30
0.0
  0
SPLINE
  5
C8
330
70
100
AcDbEntity
  8
SHADE
 62
     4
420
    65535
370
    25
100
AcDbSpline
210
0.0
220
0.0
230
1.0
 70
     8
 71
     3
 72
    23
 73
    19
 74
     0
 42
0.0000000001
 43
0.0000000001
 40
0.0
 40
0.0
 40
0.0
 40
0.0
 40
1.0
 40
1.0
 40
1.0
 40
2.0
 40
2.0
 40
2.0
 40
3.0
 40
3.0
 40
3.0
 40
4.0
 40
4.0
 40
4.0
 40
5.0
 40
5.0
 40
5.0
 40
6.0
 40
6.0
 40
6.0
 40
6.0
 10
342.0766783009499
 20
243.9163470919236
 30
0.0
 10
342.2176044172545
 20
239.7335115877717
 30
0.0
 10
342.358530533552
 20
235.5506760836214
 30
0.0
 10
342.4994566498475
 20
231.3678405794692
 30
0.0
 10
342.4995224657089
 20
231.3658870954169
 30
0.0
 10
342.4995882815669
 20
231.3639336113642
 30
0.0
 10
342.4996540318371
 20
231.3619801273105
 30
0.0
 10
342.5973371852162
 20
228.4597489458484
 30
0.0
 10
342.5502432427995
 20
225.557517764386
 30
0.0
 10
342.5187367272743
 20
222.6411526718249
 30
0.0
 10
342.4872302117491
 20
219.7247875792514
 30
0.0
 10
342.4713111231159
 20
216.7942885755795
 30
0.0
 10
342.4082468548767
 20
211.8649390687874
 30
0.0
 10
342.3568111238903
 20
207.8445214496174
 30
0.0
 10
342.2740136344584
 20
202.4944351946692
 30
0.0
 10
341.8029828632722
 20
195.1481096992232
 30
0.0
 10
341.5729339722012
 20
191.560203903981
 30
0.0
 10
341.2502800690774
 20
187.4961365645995
 30
0.0
 10
340.5291250344551
 20
181.9642512282221
 30
0.0
  0
ENDSEC
  0
SECTION
  2
OBJECTS
  0
DICTIONARY
  5
C
330
0
100
AcDbDictionary
281
     1
  3
ACAD_COLOR
350
63
  3
ACAD_DETAILVIEWSTYLE
350
6A
  3
ACAD_GROUP
350
D
  3
ACAD_LAYOUT
350
62
  3
ACAD_MATERIAL
350
10
  3
ACAD_MLEADERSTYLE
350
66
  3
ACAD_MLINESTYLE
350
5F
  3
ACAD_PLOTSETTINGS
350
61
  3
ACAD_PLOTSTYLENAME
350
E
  3
ACAD_SCALELIST
350
42
  3
ACAD_SECTIONVIEWSTYLE
350
68
  3
ACAD_TABLESTYLE
350
64
  3
ACAD_VISUALSTYLE
350
29
  3
ACDB_RECOMPOSE_DATA
350
D1
  3
AcDbVariableDictionary
350
C9
  0
DICTIONARY
  5
63
102
{ACAD_REACTORS
330
C
102
}
330
C
100
AcDbDictionary
281
     1
  0
DICTIONARY
  5
6A
102
{ACAD_REACTORS
330
C
102
}
330
C
100
AcDbDictionary
281
     1
  3
Imperial24
350
6B
  0
DICTIONARY
  5
D
102
{ACAD_REACTORS
330
C
102
}
330
C
100
AcDbDictionary
281
     1
  0
DICTIONARY
  5
62
102
{ACAD_REACTORS
330
C
102
}
330
C
100
AcDbDictionary
281
     1
  3
Layout1
350
6F
  3
Layout2
350
77
  3
Model
350
73
  0
DICTIONARY
  5
10
102
{ACAD_REACTORS
330
C
102
}
330
C
100
AcDbDictionary
281
     1
  3
ByBlock
350
19
  3
ByLayer
350
11
  3
Global
350
21
  0
DICTIONARY
  5
66
102
{ACAD_REACTORS
330
C
102
}
330
C
100
AcDbDictionary
281
     1
  3
Standard
350
67
  0
DICTIONARY
  5
5F
102
{ACAD_REACTORS
330
C
102
}
330
C
100
AcDbDictionary
281
     1
  3
Standard
350
60
  0
DICTIONARY
  5
61
102
{ACAD_REACTORS
330
C
102
}
330
C
100
AcDbDictionary
281
     1
  0
ACDBDICTIONARYWDFLT
  5
E
102
{ACAD_REACTORS
330
C
102
}
330
C
100
AcDbDictionary
281
     1
  3
Normal
350
F
100
AcDbDictionaryWithDefault
340
F
  0
DICTIONARY
  5
42
102
{ACAD_REACTORS
330
C
102
}
330
C
100
AcDbDictionary
281
     1
  3
A0
350
43
  3
A1
350
44
  3
A2
350
45
  3
A3
350
46
  3
A4
350
47
  3
A5
350
48
  3
A6
350
49
  3
A7
350
4A
  3
A8
350
4B
  3
A9
350
4C
  3
B0
350
4D
  3
B1
350
4E
  3
B2
350
4F
  3
B3
350
50
  3
B4
350
51
  3
B5
350
52
  3
B6
350
53
  0
DICTIONARY
  5
68
102
{ACAD_REACTORS
330
C
102
}
330
C
100
AcDbDictionary
281
     1
  3
Imperial24
350
69
  0
DICTIONARY
  5
64
102
{ACAD_REACTORS
330
C
102
}
330
C
100
AcDbDictionary
281
     1
  3
Standard
350
65
  0
DICTIONARY
  5
29
102
{ACAD_REACTORS
330
C
102
}
330
C
100
AcDbDictionary
281
     1
  3
2dWireframe
350
2F
  3
Basic
350
2E
  3
Brighten
350
35
  3
ColorChange
350
39
  3
Conceptual
350
32
  3
Dim
350
34
  3
EdgeColorOff
350
41
  3
Facepattern
350
38
  3
Flat
350
2A
  3
FlatWithEdges
350
2B
  3
Gouraud
350
2C
  3
GouraudWithEdges
350
2D
  3
Hidden
350
31
  3
JitterOff
350
3F
  3
Linepattern
350
37
  3
OverhangOff
350
40
  3
Realistic
350
33
  3
Shaded
350
3E
  3
Shaded with edges
350
3D
  3
Shades of Gray
350
3A
  3
Sketchy
350
3B
  3
Thicken
350
36
  3
Wireframe
350
30
  3
X-Ray
350
3C
  0
XRECORD
  5
D1
102
{ACAD_REACTORS
330
C
102
}
330
C
100
AcDbXrecord
280
     1
 90
        1
330
65
  0
DICTIONARY
  5
C9
102
{ACAD_REACTORS
330
C
102
}
330
C
100
AcDbDictionary
281
     1
  3
CANNOSCALE
350
CE
  3
CMLEADERSTYLE
350
CB
  3
CTABLESTYLE
350
CA
  3
CVIEWDETAILSTYLE
350
CC
  3
CVIEWSECTIONSTYLE
350
CD
  0
ACDBDETAILVIEWSTYLE
  5
6B
102
{ACAD_REACTORS
330
6A
102
}
330
6A
100
AcDbModelDocViewStyle
 70
     0
  3
Imperial24
290
     1
300
Imperial24
 90
        0
100
AcDbDetailViewStyle
 70
     0
 71
     0
 90
        3
 71
     1
340
55
 62
   256
 40
0.24
340
0
 62
   256
 40
0.24
300

 40
0.36
280
     3
 71
     2
340
5D
 90
       25
 62
   256
 71
     3
340
55
 62
   256
 40
0.24
 90
        1
 40
0.75
 90
        1
300
%<\AcVar ViewType \f "%tc1">% %<\AcVar ViewDetailId>%\PSCALE %<\AcVar ViewScale \f "%sn">%
 71
     4
340
5D
 90
       25
 62
   256
340
5D
 90
       25
 62
   256
280
     0
  0
LAYOUT
  5
6F
102
{ACAD_REACTORS
330
62
102
}
330
62
100
AcDbPlotSettings
  1

  2

  4

  6

 40
0.0
 41
0.0
 42
0.0
 43
0.0
 44
0.0
 45
0.0
 46
0.0
 47
0.0
 48
0.0
 49
0.0
140
0.0
141
0.0
142
1.0
143
1.0
 70
   688
 72
     0
 73
     0
 74
     5
  7

 75
    16
147
1.0
 76
     0
 77
     2
 78
   300
148
0.0
149
0.0
100
AcDbLayout
  1
Layout1
 70
     1
 71
     1
 10
0.0
 20
0.0
 11
12.0
 21
9.0
 12
0.0
 22
0.0
 32
0.0
 14
0.0
 24
0.0
 34
0.0
 15
0.0
 25
0.0
 35
0.0
146
0.0
 13
0.0
 23
0.0
 33
0.0
 16
1.0
 26
0.0
 36
0.0
 17
0.0
 27
1.0
 37
0.0
 76
     0
330
6C
  0
LAYOUT
  5
77
102
{ACAD_REACTORS
330
62
102
}
330
62
100
AcDbPlotSettings
  1

  2

  4

  6

 40
0.0
 41
0.0
 42
0.0
 43
0.0
 44
0.0
 45
0.0
 46
0.0
 47
0.0
 48
0.0
 49
0.0
140
0.0
141
0.0
142
1.0
143
1.0
 70
   688
 72
     0
 73
     0
 74
     5
  7

 75
    16
147
1.0
 76
     0
 77
     2
 78
   300
148
0.0
149
0.0
100
AcDbLayout
  1
Layout2
 70
     1
 71
     2
 10
0.0
 20
0.0
 11
12.0
 21
9.0
 12
0.0
 22
0.0
 32
0.0
 14
0.0
 24
0.0
 34
0.0
 15
0.0
 25
0.0
 35
0.0
146
0.0
 13
0.0
 23
0.0
 33
0.0
 16
1.0
 26
0.0
 36
0.0
 17
0.0
 27
1.0
 37
0.0
 76
     0
330
74
  0
LAYOUT
  5
73
102
{ACAD_REACTORS
330
62
102
}
330
62
100
AcDbPlotSettings
  1

  2

  4

  6

 40
0.0
 41
0.0
 42
0.0
 43
0.0
 44
0.0
 45
0.0
 46
0.0
 47
0.0
 48
0.0
 49
0.0
140
0.0
141
0.0
142
1.0
143
1.0
 70
  1712
 72
     0
 73
     0
 74
     0
  7

 75
     0
147
1.0
 76
     0
 77
     2
 78
   300
148
0.0
149
0.0
100
AcDbLayout
  1
Model
 70
     1
 71
     0
 10
0.0
 20
0.0
 11
12.0
 21
9.0
 12
0.0
 22
0.0
 32
0.0
 14
0.0
 24
0.0
 34
0.0
 15
0.0
 25
0.0
 35
0.0
146
0.0
 13
0.0
 23
0.0
 33
0.0
 16
1.0
 26
0.0
 36
0.0
 17
0.0
 27
1.0
 37
0.0
 76
     0
330
70
  0
MATERIAL
  5
19
102
{ACAD_XDICTIONARY
360
1A
102
}
102
{ACAD_REACTORS
330
10
102
}
330
10
100
AcDbMaterial
  1
ByBlock
 72
     0
 43
0.0208333333333333
 43
0.0
 43
0.0
 43
0.0
 43
0.0
 43
0.0208333333333333
 43
0.0
 43
0.0
 43
0.0
 43
0.0
 43
1.0
 43
0.0
 43
0.0
 43
0.0
 43
0.0
 43
1.0
 77
     0
 47
0.0208333333333333
 47
0.0
 47
0.0
 47
0.0
 47
0.0
 47
0.0208333333333333
 47
0.0
 47
0.0
 47
0.0
 47
0.0
 47
1.0
 47
0.0
 47
0.0
 47
0.0
 47
0.0
 47
1.0
171
     0
 49
0.0208333333333333
 49
0.0
 49
0.0
 49
0.0
 49
0.0
 49
0.0208333333333333
 49
0.0
 49
0.0
 49
0.0
 49
0.0
 49
1.0
 49
0.0
 49
0.0
 49
0.0
 49
0.0
 49
1.0
175
     0
142
0.0208333333333333
142
0.0
142
0.0
142
0.0
142
0.0
142
0.0208333333333333
142
0.0
142
0.0
142
0.0
142
0.0
142
1.0
142
0.0
142
0.0
142
0.0
142
0.0
142
1.0
179
     0
144
0.0208333333333333
144
0.0
144
0.0
144
0.0
144
0.0
144
0.0208333333333333
144
0.0
144
0.0
144
0.0
144
0.0
144
1.0
144
0.0
144
0.0
144
0.0
144
0.0
144
1.0
147
0.0208333333333333
147
0.0
147
0.0
147
0.0
147
0.0
147
0.0208333333333333
147
0.0
147
0.0
147
0.0
147
0.0
147
1.0
147
0.0
147
0.0
147
0.0
147
0.0
147
1.0
  0
MATERIAL
  5
11
102
{ACAD_XDICTIONARY
360
12
102
}
102
{ACAD_REACTORS
330
10
102
}
330
10
100
AcDbMaterial
  1
ByLayer
 72
     0
 43
0.0208333333333333
 43
0.0
 43
0.0
 43
0.0
 43
0.0
 43
0.0208333333333333
 43
0.0
 43
0.0
 43
0.0
 43
0.0
 43
1.0
 43
0.0
 43
0.0
 43
0.0
 43
0.0
 43
1.0
 77
     0
 47
0.0208333333333333
 47
0.0
 47
0.0
 47
0.0
 47
0.0
 47
0.0208333333333333
 47
0.0
 47
0.0
 47
0.0
 47
0.0
 47
1.0
 47
0.0
 47
0.0
 47
0.0
 47
0.0
 47
1.0
171
     0
 49
0.0208333333333333
 49
0.0
 49
0.0
 49
0.0
 49
0.0
 49
0.0208333333333333
 49
0.0
 49
0.0
 49
0.0
 49
0.0
 49
1.0
 49
0.0
 49
0.0
 49
0.0
 49
0.0
 49
1.0
175
     0
142
0.0208333333333333
142
0.0
142
0.0
142
0.0
142
0.0
142
0.0208333333333333
142
0.0
142
0.0
142
0.0
142
0.0
142
1.0
142
0.0
142
0.0
142
0.0
142
0.0
142
1.0
179
     0
144
0.0208333333333333
144
0.0
144
0.0
144
0.0
144
0.0
144
0.0208333333333333
144
0.0
144
0.0
144
0.0
144
0.0
144
1.0
144
0.0
144
0.0
144
0.0
144
0.0
144
1.0
147
0.0208333333333333
147
0.0
147
0.0
147
0.0
147
0.0
147
0.0208333333333333
147
0.0
147
0.0
147
0.0
147
0.0
147
1.0
147
0.0
147
0.0
147
0.0
147
0.0
147
1.0
  0
MATERIAL
  5
21
102
{ACAD_XDICTIONARY
360
22
102
}
102
{ACAD_REACTORS
330
10
102
}
330
10
100
AcDbMaterial
  1
Global
 72
     0
 43
0.0208333333333333
 43
0.0
 43
0.0
 43
0.0
 43
0.0
 43
0.0208333333333333
 43
0.0
 43
0.0
 43
0.0
 43
0.0
 43
1.0
 43
0.0
 43
0.0
 43
0.0
 43
0.0
 43
1.0
 77
     0
 47
0.0208333333333333
 47
0.0
 47
0.0
 47
0.0
 47
0.0
 47
0.0208333333333333
 47
0.0
 47
0.0
 47
0.0
 47
0.0
 47
1.0
 47
0.0
 47
0.0
 47
0.0
 47
0.0
 47
1.0
171
     0
 49
0.0208333333333333
 49
0.0
 49
0.0
 49
0.0
 49
0.0
 49
0.0208333333333333
 49
0.0
 49
0.0
 49
0.0
 49
0.0
 49
1.0
 49
0.0
 49
0.0
 49
0.0
 49
0.0
 49
1.0
175
     0
142
0.0208333333333333
142
0.0
142
0.0
142
0.0
142
0.0
142
0.0208333333333333
142
0.0
142
0.0
142
0.0
142
0.0
142
1.0
142
0.0
142
0.0
142
0.0
142
0.0
142
1.0
179
     0
144
0.0208333333333333
144
0.0
144
0.0
144
0.0
144
0.0
144
0.0208333333333333
144
0.0
144
0.0
144
0.0
144
0.0
144
1.0
144
0.0
144
0.0
144
0.0
144
0.0
144
1.0
147
0.0208333333333333
147
0.0
147
0.0
147
0.0
147
0.0
147
0.0208333333333333
147
0.0
147
0.0
147
0.0
147
0.0
147
1.0
147
0.0
147
0.0
147
0.0
147
0.0
147
1.0
  0
MLEADERSTYLE
  5
67
102
{ACAD_REACTORS
330
66
102
}
330
66
100
AcDbMLeaderStyle
179
     2
170
     2
171
     1
172
     0
 90
        2
 40
0.0
 41
0.0
173
     1
 91
-1056964608
340
5B
 92
       -2
290
     1
 42
0.09
291
     1
 43
0.36
  3
Standard
 44
0.18
300

342
55
174
     1
178
     6
175
     1
176
     0
 93
-1056964608
 45
0.18
292
     0
297
     0
 46
0.18
 94
-1056964608
 47
1.0
 49
1.0
140
1.0
293
     1
141
0.0
294
     1
177
     0
142
1.0
295
     1
296
     0
143
0.125
271
     0
272
     9
273
     9
298
     1
  0
MLINESTYLE
  5
60
102
{ACAD_REACTORS
330
5F
102
}
330
5F
100
AcDbMlineStyle
  2
STANDARD
 70
     0
  3

 62
   256
 51
90.0
 52
90.0
 71
     2
 49
0.5
 62
   256
  6
BYLAYER
 49
-0.5
 62
   256
  6
BYLAYER
  0
ACDBPLACEHOLDER
  5
F
102
{ACAD_REACTORS
330
E
102
}
330
E
  0
SCALE
  5
43
102
{ACAD_REACTORS
330
42
102
}
330
42
100
AcDbScale
 70
     0
300
1:1
140
1.0
141
1.0
290
     1
  0
SCALE
  5
44
102
{ACAD_REACTORS
330
42
102
}
330
42
100
AcDbScale
 70
     0
300
1/128" = 1'-0"
140
0.0078125
141
12.0
290
     0
  0
SCALE
  5
45
102
{ACAD_REACTORS
330
42
102
}
330
42
100
AcDbScale
 70
     0
300
1/64" = 1'-0"
140
0.015625
141
12.0
290
     0
  0
SCALE
  5
46
102
{ACAD_REACTORS
330
42
102
}
330
42
100
AcDbScale
 70
     0
300
1/32" = 1'-0"
140
0.03125
141
12.0
290
     0
  0
SCALE
  5
47
102
{ACAD_REACTORS
330
42
102
}
330
42
100
AcDbScale
 70
     0
300
1/16" = 1'-0"
140
0.0625
141
12.0
290
     0
  0
SCALE
  5
48
102
{ACAD_REACTORS
330
42
102
}
330
42
100
AcDbScale
 70
     0
300
3/32" = 1'-0"
140
0.09375
141
12.0
290
     0
  0
SCALE
  5
49
102
{ACAD_REACTORS
330
42
102
}
330
42
100
AcDbScale
 70
     0
300
1/8" = 1'-0"
140
0.125
141
12.0
290
     0
  0
SCALE
  5
4A
102
{ACAD_REACTORS
330
42
102
}
330
42
100
AcDbScale
 70
     0
300
3/16" = 1'-0"
140
0.1875
141
12.0
290
     0
  0
SCALE
  5
4B
102
{ACAD_REACTORS
330
42
102
}
330
42
100
AcDbScale
 70
     0
300
1/4" = 1'-0"
140
0.25
141
12.0
290
     0
  0
SCALE
  5
4C
102
{ACAD_REACTORS
330
42
102
}
330
42
100
AcDbScale
 70
     0
300
3/8" = 1'-0"
140
0.375
141
12.0
290
     0
  0
SCALE
  5
4D
102
{ACAD_REACTORS
330
42
102
}
330
42
100
AcDbScale
 70
     0
300
1/2" = 1'-0"
140
0.5
141
12.0
290
     0
  0
SCALE
  5
4E
102
{ACAD_REACTORS
330
42
102
}
330
42
100
AcDbScale
 70
     0
300
3/4" = 1'-0"
140
0.75
141
12.0
290
     0
  0
SCALE
  5
4F
102
{ACAD_REACTORS
330
42
102
}
330
42
100
AcDbScale
 70
     0
300
1" = 1'-0"
140
1.0
141
12.0
290
     0
  0
SCALE
  5
50
102
{ACAD_REACTORS
330
42
102
}
330
42
100
AcDbScale
 70
     0
300
1-1/2" = 1'-0"
140
1.5
141
12.0
290
     0
  0
SCALE
  5
51
102
{ACAD_REACTORS
330
42
102
}
330
42
100
AcDbScale
 70
     0
300
3" = 1'-0"
140
3.0
141
12.0
290
     0
  0
SCALE
  5
52
102
{ACAD_REACTORS
330
42
102
}
330
42
100
AcDbScale
 70
     0
300
6" = 1'-0"
140
6.0
141
12.0
290
     0
  0
SCALE
  5
53
102
{ACAD_REACTORS
330
42
102
}
330
42
100
AcDbScale
 70
     0
300
1'-0" = 1'-0"
140
12.0
141
12.0
290
     0
  0
ACDBSECTIONVIEWSTYLE
  5
69
102
{ACAD_REACTORS
330
68
102
}
330
68
100
AcDbModelDocViewStyle
 70
     0
  3
Imperial24
290
     1
300
Imperial24
 90
        0
100
AcDbSectionViewStyle
 70
     0
 71
     0
 90
       78
 71
     1
340
55
 62
   256
 40
0.24
340
0
340
0
 62
   256
 40
0.24
300
I, O, Q, S, X, Z
 40
0.48
 90
        3
 40
0.18
 90
        1
 71
     2
340
5D
 90
       25
 62
   256
340
5D
 90
       50
 62
   256
 40
0.24
 40
0.0
 40
0.24
 71
     3
340
55
 62
   256
 40
0.24
 90
        1
 40
0.75
 90
        1
300
%<\AcVar ViewType \f "%tc1">% %<\AcVar ViewSectionStartId>%-%<\AcVar ViewSectionEndId>%\PSCALE %<\AcVar ViewScale \f "%sn">%
 71
     4
 62
   256
 62
   257
300
ANSI31
 40
1.0
 90
        0
290
     0
290
     0
 90
        6
 40
0.0
 40
1.570796326794896
 40
0.2617993877991494
 40
1.308996938995747
 40
-0.2617993877991494
 40
1.832595714594046
  0
TABLESTYLE
  5
65
102
{ACAD_XDICTIONARY
360
CF
102
}
102
{ACAD_REACTORS
330
64
102
}
330
64
100
AcDbTableStyle
280
     0
  3
Standard
 70
     0
 71
     0
 40
0.06
 41
0.06
280
     0
281
     0
  7
Standard
140
0.18
170
     2
 62
     0
 63
     7
283
     0
 90
      512
 91
        0
  1

274
    -2
284
     1
 64
     0
275
    -2
285
     1
 65
     0
276
    -2
286
     1
 66
     0
277
    -2
287
     1
 67
     0
278
    -2
288
     1
 68
     0
279
    -2
289
     1
 69
     0
  7
Standard
140
0.25
170
     5
 62
     0
 63
     7
283
     0
 90
      512
 91
        0
  1

274
    -2
284
     1
 64
     0
275
    -2
285
     1
 65
     0
276
    -2
286
     1
 66
     0
277
    -2
287
     1
 67
     0
278
    -2
288
     1
 68
     0
279
    -2
289
     1
 69
     0
  7
Standard
140
0.18
170
     5
 62
     0
 63
     7
283
     0
 90
      512
 91
        0
  1

274
    -2
284
     1
 64
     0
275
    -2
285
     1
 65
     0
276
    -2
286
     1
 66
     0
277
    -2
287
     1
 67
     0
278
    -2
288
     1
 68
     0
279
    -2
289
     1
 69
     0
  0
VISUALSTYLE
  5
2F
102
{ACAD_REACTORS
330
29
102
}
330
29
100
AcDbVisualStyle
  2
2dWireframe
 70
     4
177
     3
291
     0
 70
    58
 90
        0
176
     1
 90
        2
176
     1
 90
        0
176
     1
 90
        0
176
     1
 40
0.6
176
     1
 40
30.0
176
     1
 62
     7
420
 16777215
176
     1
 90
        1
176
     1
 90
        4
176
     1
 62
     7
176
     1
 62
   257
176
     1
 90
        1
176
     1
 90
        1
176
     1
 40
1.0
176
     1
 90
        0
176
     1
 62
   257
176
     1
 40
1.0
176
     1
 90
        1
176
     1
 90
        6
176
     1
 90
        2
176
     1
 62
     7
176
     1
 90
        5
176
     1
 90
        0
176
     1
 90
        0
176
     1
290
     0
176
     1
 90
        1
176
     1
 40
0.0
176
     1
 90
        0
176
     1
290
     1
176
     1
290
     1
176
     1
290
     0
176
     1
290
     0
176
     1
290
     0
176
     1
290
     0
176
     1
290
     0
176
     1
290
     0
176
     1
290
     0
176
     1
 90
       50
176
     1
 40
0.0
176
     1
 40
1.0
176
     1
 90
        0
176
     1
 62
    18
420
        0
176
     1
 90
       50
176
     1
 90
        3
176
     1
 62
     5
420
      255
176
     1
290
     0
176
     1
 90
       50
176
     1
 90
       50
176
     1
 90
       50
176
     1
290
     0
176
     1
 90
       50
176
     1
 62
   256
176
     0
 40
1.0
176
     0
 90
        2
176
     1
  1
strokes_ogs.tif
176
     1
290
     0
176
     1
 40
1.0
176
     1
 40
1.0
176
     1
  0
VISUALSTYLE
  5
2E
102
{ACAD_REACTORS
330
29
102
}
330
29
100
AcDbVisualStyle
  2
Basic
 70
     7
177
     3
291
     1
 70
    58
 90
        1
176
     1
 90
        0
176
     1
 90
        1
176
     1
 90
        0
176
     1
 40
0.6
176
     1
 40
30.0
176
     1
 62
     7
420
 16777215
176
     1
 90
        0
176
     1
 90
        4
176
     1
 62
     7
176
     1
 62
   257
176
     1
 90
        1
176
     1
 90
        1
176
     1
 40
1.0
176
     1
 90
        8
176
     1
 62
     7
176
     1
 40
1.0
176
     1
 90
        1
176
     1
 90
        6
176
     1
 90
        2
176
     1
 62
     7
176
     1
 90
        5
176
     1
 90
        0
176
     1
 90
        0
176
     1
290
     0
176
     1
 90
        1
176
     1
 40
0.0
176
     1
 90
        0
176
     1
290
     0
176
     1
290
     1
176
     1
290
     1
176
     1
290
     0
176
     1
290
     0
176
     1
290
     0
176
     1
290
     0
176
     1
290
     0
176
     1
290
     0
176
     1
 90
       50
176
     1
 40
0.0
176
     1
 40
1.0
176
     1
 90
        0
176
     1
 62
    18
420
        0
176
     1
 90
       50
176
     1
 90
        3
176
     1
 62
     5
420
      255
176
     1
290
     0
176
     1
 90
       50
176
     1
 90
       50
176
     1
 90
       50
176
     1
290
     0
176
     1
 90
       50
176
     1
 62
   256
176
     0
 40
1.0
176
     0
 90
        2
176
     1
  1
strokes_ogs.tif
176
     1
290
     0
176
     1
 40
1.0
176
     1
 40
1.0
176
     1
  0
VISUALSTYLE
  5
35
102
{ACAD_REACTORS
330
29
102
}
330
29
100
AcDbVisualStyle
  2
Brighten
 70
    12
177
     3
291
     1
 70
    58
 90
        2
176
     1
 90
        2
176
     1
 90
        0
176
     1
 90
        0
176
     1
 40
0.6
176
     1
 40
30.0
176
     1
 62
     7
420
 16777215
176
     1
 90
        1
176
     1
 90
        4
176
     1
 62
     7
176
     1
 62
   257
176
     1
 90
        1
176
     1
 90
        1
176
     1
 40
1.0
176
     1
 90
        8
176
     1
 62
     7
176
     1
 40
1.0
176
     1
 90
        1
176
     1
 90
        6
176
     1
 90
        2
176
     1
 62
     7
176
     1
 90
        5
176
     1
 90
        0
176
     1
 90
        0
176
     1
290
     0
176
     1
 90
        1
176
     1
 40
50.0
176
     1
 90
        0
176
     1
290
     0
176
     1
290
     1
176
     1
290
     1
176
     1
290
     0
176
     1
290
     0
176
     1
290
     0
176
     1
290
     0
176
     1
290
     0
176
     1
290
     0
176
     1
 90
       50
176
     1
 40
0.0
176
     1
 40
1.0
176
     1
 90
        0
176
     1
 62
    18
420
        0
176
     1
 90
       50
176
     1
 90
        3
176
     1
 62
     5
420
      255
176
     1
290
     0
176
     1
 90
       50
176
     1
 90
       50
176
     1
 90
       50
176
     1
290
     0
176
     1
 90
       50
176
     1
 62
   256
176
     0
 40
1.0
176
     0
 90
        2
176
     1
  1
strokes_ogs.tif
176
     1
290
     0
176
     1
 40
1.0
176
     1
 40
1.0
176
     1
  0
VISUALSTYLE
  5
39
102
{ACAD_REACTORS
330
29
102
}
330
29
100
AcDbVisualStyle
  2
ColorChange
 70
    16
177
     3
291
     1
 70
    58
 90
        2
176
     1
 90
        2
176
     1
 90
        3
176
     1
 90
        0
176
     1
 40
0.6
176
     1
 40
30.0
176
     1
 62
     8
420
  8421504
176
     1
 90
        1
176
     1
 90
        4
176
     1
 62
     7
176
     1
 62
   257
176
     1
 90
        1
176
     1
 90
        1
176
     1
 40
1.0
176
     1
 90
        8
176
     1
 62
     8
420
  8421504
176
     1
 40
1.0
176
     1
 90
        1
176
     1
 90
        6
176
     1
 90
        2
176
     1
 62
     7
176
     1
 90
        5
176
     1
 90
        0
176
     1
 90
        0
176
     1
290
     0
176
     1
 90
        1
176
     1
 40
0.0
176
     1
 90
        0
176
     1
290
     0
176
     1
290
     1
176
     1
290
     1
176
     1
290
     0
176
     1
290
     0
176
     1
290
     0
176
     1
290
     0
176
     1
290
     0
176
     1
290
     0
176
     1
 90
       50
176
     1
 40
0.0
176
     1
 40
1.0
176
     1
 90
        0
176
     1
 62
    18
420
        0
176
     1
 90
       50
176
     1
 90
        3
176
     1
 62
     5
420
      255
176
     1
290
     0
176
     1
 90
       50
176
     1
 90
       50
176
     1
 90
       50
176
     1
290
     0
176
     1
 90
       50
176
     1
 62
   256
176
     0
 40
1.0
176
     0
 90
        2
176
     1
  1
strokes_ogs.tif
176
     1
290
     0
176
     1
 40
1.0
176
     1
 40
1.0
176
     1
  0
VISUALSTYLE
  5
32
102
{ACAD_REACTORS
330
29
102
}
330
29
100
AcDbVisualStyle
  2
Conceptual
 70
     9
177
     3
291
     0
 70
    58
 90
        3
176
     1
 90
        2
176
     1
 90
        0
176
     1
 90
        0
176
     1
 40
0.6
176
     1
 40
30.0
176
     1
 62
     7
420
 16777215
176
     1
 90
        2
176
     1
 90
        2
176
     1
 62
     7
176
     1
 62
   257
176
     1
 90
        1
176
     1
 90
        1
176
     1
 40
179.0
176
     1
 90
        8
176
     1
 62
     7
176
     1
 40
1.0
176
     1
 90
        1
176
     1
 90
        6
176
     1
 90
        2
176
     1
 62
     7
176
     1
 90
        3
176
     1
 90
        0
176
     1
 90
        0
176
     1
290
     0
176
     1
 90
        1
176
     1
 40
0.0
176
     1
 90
        0
176
     1
290
     0
176
     1
290
     1
176
     1
290
     1
176
     1
290
     0
176
     1
290
     0
176
     1
290
     0
176
     1
290
     0
176
     1
290
     0
176
     1
290
     0
176
     1
 90
       50
176
     1
 40
0.0
176
     1
 40
1.0
176
     1
 90
        0
176
     1
 62
    18
420
        0
176
     1
 90
       50
176
     1
 90
        3
176
     1
 62
     5
420
      255
176
     1
290
     0
176
     1
 90
       50
176
     1
 90
       50
176
     1
 90
       50
176
     1
290
     0
176
     1
 90
       50
176
     1
 62
   256
176
     0
 40
1.0
176
     0
 90
        2
176
     1
  1
strokes_ogs.tif
176
     1
290
     0
176
     1
 40
1.0
176
     1
 40
1.0
176
     1
  0
VISUALSTYLE
  5
34
102
{ACAD_REACTORS
330
29
102
}
330
29
100
AcDbVisualStyle
  2
Dim
 70
    11
177
     3
291
     1
 70
    58
 90
        2
176
     1
 90
        2
176
     1
 90
        0
176
     1
 90
        0
176
     1
 40
0.6
176
     1
 40
30.0
176
     1
 62
     7
420
 16777215
176
     1
 90
        1
176
     1
 90
        4
176
     1
 62
     7
176
     1
 62
   257
176
     1
 90
        1
176
     1
 90
        1
176
     1
 40
1.0
176
     1
 90
        8
176
     1
 62
     7
176
     1
 40
1.0
176
     1
 90
        1
176
     1
 90
        6
176
     1
 90
        2
176
     1
 62
     7
176
     1
 90
        5
176
     1
 90
        0
176
     1
 90
        0
176
     1
290
     0
176
     1
 90
        1
176
     1
 40
-50.0
176
     1
 90
        0
176
     1
290
     0
176
     1
290
     1
176
     1
290
     1
176
     1
290
     0
176
     1
290
     0
176
     1
290
     0
176
     1
290
     0
176
     1
290
     0
176
     1
290
     0
176
     1
 90
       50
176
     1
 40
0.0
176
     1
 40
1.0
176
     1
 90
        0
176
     1
 62
    18
420
        0
176
     1
 90
       50
176
     1
 90
        3
176
     1
 62
     5
420
      255
176
     1
290
     0
176
     1
 90
       50
176
     1
 90
       50
176
     1
 90
       50
176
     1
290
     0
176
     1
 90
       50
176
     1
 62
   256
176
     0
 40
1.0
176
     0
 90
        2
176
     1
  1
strokes_ogs.tif
176
     1
290
     0
176
     1
 40
1.0
176
     1
 40
1.0
176
     1
  0
VISUALSTYLE
  5
41
102
{ACAD_REACTORS
330
29
102
}
330
29
100
AcDbVisualStyle
  2
EdgeColorOff
 70
    22
177
     3
291
     1
 70
    58
 90
        2
176
     0
 90
        2
176
     0
 90
        0
176
     0
 90
        0
176
     0
 40
0.6
176
     0
 40
30.0
176
     0
 62
     7
420
 16777215
176
     0
 90
        1
176
     0
 90
        4
176
     0
 62
     7
176
     0
 62
   257
176
     0
 90
        1
176
     0
 90
        1
176
     0
 40
1.0
176
     0
 90
        8
176
     2
 62
     7
176
     0
 40
1.0
176
     0
 90
        1
176
     0
 90
        6
176
     0
 90
        2
176
     0
 62
     7
176
     0
 90
        5
176
     0
 90
        0
176
     0
 90
        0
176
     0
290
     0
176
     0
 90
        1
176
     0
 40
0.0
176
     0
 90
        0
176
     0
290
     0
176
     0
290
     1
176
     0
290
     1
176
     0
290
     0
176
     0
290
     0
176
     0
290
     0
176
     0
290
     0
176
     0
290
     0
176
     0
290
     0
176
     0
 90
       50
176
     0
 40
0.0
176
     0
 40
1.0
176
     0
 90
        0
176
     0
 62
    18
420
        0
176
     0
 90
       50
176
     0
 90
        3
176
     0
 62
     5
420
      255
176
     0
290
     0
176
     0
 90
       50
176
     0
 90
       50
176
     0
 90
       50
176
     0
290
     0
176
     0
 90
       50
176
     0
 62
   256
176
     0
 40
1.0
176
     0
 90
        2
176
     0
  1
strokes_ogs.tif
176
     0
290
     0
176
     0
 40
1.0
176
     0
 40
1.0
176
     0
  0
VISUALSTYLE
  5
38
102
{ACAD_REACTORS
330
29
102
}
330
29
100
AcDbVisualStyle
  2
Facepattern
 70
    15
177
     3
291
     1
 70
    58
 90
        2
176
     1
 90
        2
176
     1
 90
        0
176
     1
 90
        0
176
     1
 40
0.6
176
     1
 40
30.0
176
     1
 62
     7
420
 16777215
176
     1
 90
        1
176
     1
 90
        4
176
     1
 62
     7
176
     1
 62
   257
176
     1
 90
        1
176
     1
 90
        1
176
     1
 40
1.0
176
     1
 90
        8
176
     1
 62
     7
176
     1
 40
1.0
176
     1
 90
        1
176
     1
 90
        6
176
     1
 90
        2
176
     1
 62
     7
176
     1
 90
        5
176
     1
 90
        0
176
     1
 90
        0
176
     1
290
     0
176
     1
 90
        1
176
     1
 40
0.0
176
     1
 90
        0
176
     1
290
     0
176
     1
290
     1
176
     1
290
     1
176
     1
290
     0
176
     1
290
     0
176
     1
290
     0
176
     1
290
     0
176
     1
290
     0
176
     1
290
     0
176
     1
 90
       50
176
     1
 40
0.0
176
     1
 40
1.0
176
     1
 90
        0
176
     1
 62
    18
420
        0
176
     1
 90
       50
176
     1
 90
        3
176
     1
 62
     5
420
      255
176
     1
290
     0
176
     1
 90
       50
176
     1
 90
       50
176
     1
 90
       50
176
     1
290
     0
176
     1
 90
       50
176
     1
 62
   256
176
     0
 40
1.0
176
     0
 90
        2
176
     1
  1
strokes_ogs.tif
176
     1
290
     0
176
     1
 40
1.0
176
     1
 40
1.0
176
     1
  0
VISUALSTYLE
  5
2A
102
{ACAD_REACTORS
330
29
102
}
330
29
100
AcDbVisualStyle
  2
Flat
 70
     0
177
     3
291
     1
 70
    58
 90
        2
176
     1
 90
        1
176
     1
 90
        1
176
     1
 90
        2
176
     1
 40
0.6
176
     1
 40
30.0
176
     1
 62
     7
420
 16777215
176
     1
 90
        0
176
     1
 90
        0
176
     1
 62
     7
176
     1
 62
   257
176
     1
 90
        1
176
     1
 90
        1
176
     1
 40
1.0
176
     1
 90
        8
176
     1
 62
     7
176
     1
 40
1.0
176
     1
 90
        1
176
     1
 90
        6
176
     1
 90
        2
176
     1
 62
     7
176
     1
 90
        5
176
     1
 90
        0
176
     1
 90
        0
176
     1
290
     0
176
     1
 90
       13
176
     1
 40
0.0
176
     1
 90
        0
176
     1
290
     0
176
     1
290
     1
176
     1
290
     1
176
     1
290
     0
176
     1
290
     0
176
     1
290
     0
176
     1
290
     0
176
     1
290
     0
176
     1
290
     0
176
     1
 90
       50
176
     1
 40
0.0
176
     1
 40
1.0
176
     1
 90
        0
176
     1
 62
    18
420
        0
176
     1
 90
       50
176
     1
 90
        3
176
     1
 62
     5
420
      255
176
     1
290
     0
176
     1
 90
       50
176
     1
 90
       50
176
     1
 90
       50
176
     1
290
     0
176
     1
 90
       50
176
     1
 62
   256
176
     0
 40
1.0
176
     0
 90
        2
176
     1
  1
strokes_ogs.tif
176
     1
290
     0
176
     1
 40
1.0
176
     1
 40
1.0
176
     1
  0
VISUALSTYLE
  5
2B
102
{ACAD_REACTORS
330
29
102
}
330
29
100
AcDbVisualStyle
  2
FlatWithEdges
 70
     1
177
     3
291
     1
 70
    58
 90
        2
176
     1
 90
        1
176
     1
 90
        1
176
     1
 90
        2
176
     1
 40
0.6
176
     1
 40
30.0
176
     1
 62
     7
420
 16777215
176
     1
 90
        1
176
     1
 90
        0
176
     1
 62
     7
176
     1
 62
   257
176
     1
 90
        1
176
     1
 90
        1
176
     1
 40
1.0
176
     1
 90
        0
176
     1
 62
   257
176
     1
 40
1.0
176
     1
 90
        1
176
     1
 90
        6
176
     1
 90
        2
176
     1
 62
     7
176
     1
 90
        5
176
     1
 90
        0
176
     1
 90
        0
176
     1
290
     0
176
     1
 90
       13
176
     1
 40
0.0
176
     1
 90
        0
176
     1
290
     0
176
     1
290
     1
176
     1
290
     1
176
     1
290
     0
176
     1
290
     0
176
     1
290
     0
176
     1
290
     0
176
     1
290
     0
176
     1
290
     0
176
     1
 90
       50
176
     1
 40
0.0
176
     1
 40
1.0
176
     1
 90
        0
176
     1
 62
    18
420
        0
176
     1
 90
       50
176
     1
 90
        3
176
     1
 62
     5
420
      255
176
     1
290
     0
176
     1
 90
       50
176
     1
 90
       50
176
     1
 90
       50
176
     1
290
     0
176
     1
 90
       50
176
     1
 62
   256
176
     0
 40
1.0
176
     0
 90
        2
176
     1
  1
strokes_ogs.tif
176
     1
290
     0
176
     1
 40
1.0
176
     1
 40
1.0
176
     1
  0
VISUALSTYLE
  5
2C
102
{ACAD_REACTORS
330
29
102
}
330
29
100
AcDbVisualStyle
  2
Gouraud
 70
     2
177
     3
291
     1
 70
    58
 90
        2
176
     1
 90
        2
176
     1
 90
        1
176
     1
 90
        2
176
     1
 40
0.6
176
     1
 40
30.0
176
     1
 62
     7
420
 16777215
176
     1
 90
        0
176
     1
 90
        0
176
     1
 62
     7
176
     1
 62
   257
176
     1
 90
        1
176
     1
 90
        1
176
     1
 40
1.0
176
     1
 90
        0
176
     1
 62
     7
176
     1
 40
1.0
176
     1
 90
        1
176
     1
 90
        6
176
     1
 90
        2
176
     1
 62
     7
176
     1
 90
        5
176
     1
 90
        0
176
     1
 90
        0
176
     1
290
     0
176
     1
 90
       13
176
     1
 40
0.0
176
     1
 90
        0
176
     1
290
     0
176
     1
290
     1
176
     1
290
     1
176
     1
290
     0
176
     1
290
     0
176
     1
290
     0
176
     1
290
     0
176
     1
290
     0
176
     1
290
     0
176
     1
 90
       50
176
     1
 40
0.0
176
     1
 40
1.0
176
     1
 90
        0
176
     1
 62
    18
420
        0
176
     1
 90
       50
176
     1
 90
        3
176
     1
 62
     5
420
      255
176
     1
290
     0
176
     1
 90
       50
176
     1
 90
       50
176
     1
 90
       50
176
     1
290
     0
176
     1
 90
       50
176
     1
 62
   256
176
     0
 40
1.0
176
     0
 90
        2
176
     1
  1
strokes_ogs.tif
176
     1
290
     0
176
     1
 40
1.0
176
     1
 40
1.0
176
     1
  0
VISUALSTYLE
  5
2D
102
{ACAD_REACTORS
330
29
102
}
330
29
100
AcDbVisualStyle
  2
GouraudWithEdges
 70
     3
177
     3
291
     1
 70
    58
 90
        2
176
     1
 90
        2
176
     1
 90
        1
176
     1
 90
        2
176
     1
 40
0.6
176
     1
 40
30.0
176
     1
 62
     7
420
 16777215
176
     1
 90
        1
176
     1
 90
        0
176
     1
 62
     7
176
     1
 62
   257
176
     1
 90
        1
176
     1
 90
        1
176
     1
 40
1.0
176
     1
 90
        0
176
     1
 62
   257
176
     1
 40
1.0
176
     1
 90
        1
176
     1
 90
        6
176
     1
 90
        2
176
     1
 62
     7
176
     1
 90
        5
176
     1
 90
        0
176
     1
 90
        0
176
     1
290
     0
176
     1
 90
       13
176
     1
 40
0.0
176
     1
 90
        0
176
     1
290
     0
176
     1
290
     1
176
     1
290
     1
176
     1
290
     0
176
     1
290
     0
176
     1
290
     0
176
     1
290
     0
176
     1
290
     0
176
     1
290
     0
176
     1
 90
       50
176
     1
 40
0.0
176
     1
 40
1.0
176
     1
 90
        0
176
     1
 62
    18
420
        0
176
     1
 90
       50
176
     1
 90
        3
176
     1
 62
     5
420
      255
176
     1
290
     0
176
     1
 90
       50
176
     1
 90
       50
176
     1
 90
       50
176
     1
290
     0
176
     1
 90
       50
176
     1
 62
   256
176
     0
 40
1.0
176
     0
 90
        2
176
     1
  1
strokes_ogs.tif
176
     1
290
     0
176
     1
 40
1.0
176
     1
 40
1.0
176
     1
  0
VISUALSTYLE
  5
31
102
{ACAD_REACTORS
330
29
102
}
330
29
100
AcDbVisualStyle
  2
Hidden
 70
     6
177
     3
291
     0
 70
    58
 90
        1
176
     1
 90
        2
176
     1
 90
        2
176
     1
 90
        0
176
     1
 40
0.6
176
     1
 40
30.0
176
     1
 62
     7
420
 16777215
176
     1
 90
        2
176
     1
 90
        2
176
     1
 62
     7
176
     1
 62
   257
176
     1
 90
        2
176
     1
 90
        1
176
     1
 40
40.0
176
     1
 90
        0
176
     1
 62
   257
176
     1
 40
1.0
176
     1
 90
        1
176
     1
 90
        6
176
     1
 90
        2
176
     1
 62
     7
176
     1
 90
        3
176
     1
 90
        0
176
     1
 90
        0
176
     1
290
     0
176
     1
 90
        1
176
     1
 40
0.0
176
     1
 90
        0
176
     1
290
     0
176
     1
290
     1
176
     1
290
     1
176
     1
290
     0
176
     1
290
     0
176
     1
290
     0
176
     1
290
     0
176
     1
290
     0
176
     1
290
     0
176
     1
 90
       50
176
     1
 40
0.0
176
     1
 40
1.0
176
     1
 90
        0
176
     1
 62
    18
420
        0
176
     1
 90
       50
176
     1
 90
        3
176
     1
 62
     5
420
      255
176
     1
290
     0
176
     1
 90
       50
176
     1
 90
       50
176
     1
 90
       50
176
     1
290
     0
176
     1
 90
       50
176
     1
 62
   256
176
     0
 40
1.0
176
     0
 90
        2
176
     1
  1
strokes_ogs.tif
176
     1
290
     0
176
     1
 40
1.0
176
     1
 40
1.0
176
     1
  0
VISUALSTYLE
  5
3F
102
{ACAD_REACTORS
330
29
102
}
330
29
100
AcDbVisualStyle
  2
JitterOff
 70
    20
177
     3
291
     1
 70
    58
 90
        2
176
     0
 90
        2
176
     0
 90
        0
176
     0
 90
        0
176
     0
 40
0.6
176
     0
 40
30.0
176
     0
 62
     7
420
 16777215
176
     0
 90
        1
176
     0
 90
        4
176
     0
 62
     7
176
     0
 62
   257
176
     0
 90
        1
176
     0
 90
        1
176
     0
 40
1.0
176
     0
 90
       10
176
     2
 62
     7
176
     0
 40
1.0
176
     0
 90
        1
176
     0
 90
        6
176
     0
 90
        2
176
     0
 62
     7
176
     0
 90
        5
176
     0
 90
        0
176
     0
 90
        0
176
     0
290
     0
176
     0
 90
        1
176
     0
 40
0.0
176
     0
 90
        0
176
     0
290
     0
176
     0
290
     1
176
     0
290
     1
176
     0
290
     0
176
     0
290
     0
176
     0
290
     0
176
     0
290
     0
176
     0
290
     0
176
     0
290
     0
176
     0
 90
       50
176
     0
 40
0.0
176
     0
 40
1.0
176
     0
 90
        0
176
     0
 62
    18
420
        0
176
     0
 90
       50
176
     0
 90
        3
176
     0
 62
     5
420
      255
176
     0
290
     0
176
     0
 90
       50
176
     0
 90
       50
176
     0
 90
       50
176
     0
290
     0
176
     0
 90
       50
176
     0
 62
   256
176
     0
 40
1.0
176
     0
 90
        2
176
     0
  1
strokes_ogs.tif
176
     0
290
     0
176
     0
 40
1.0
176
     0
 40
1.0
176
     0
  0
VISUALSTYLE
  5
37
102
{ACAD_REACTORS
330
29
102
}
330
29
100
AcDbVisualStyle
  2
Linepattern
 70
    14
177
     3
291
     1
 70
    58
 90
        2
176
     1
 90
        2
176
     1
 90
        0
176
     1
 90
        0
176
     1
 40
0.6
176
     1
 40
30.0
176
     1
 62
     7
420
 16777215
176
     1
 90
        1
176
     1
 90
        4
176
     1
 62
     7
176
     1
 62
   257
176
     1
 90
        7
176
     1
 90
        7
176
     1
 40
1.0
176
     1
 90
        8
176
     1
 62
     7
176
     1
 40
1.0
176
     1
 90
        1
176
     1
 90
        6
176
     1
 90
        2
176
     1
 62
     7
176
     1
 90
        5
176
     1
 90
        0
176
     1
 90
        0
176
     1
290
     0
176
     1
 90
        1
176
     1
 40
0.0
176
     1
 90
        0
176
     1
290
     0
176
     1
290
     1
176
     1
290
     1
176
     1
290
     0
176
     1
290
     0
176
     1
290
     0
176
     1
290
     0
176
     1
290
     0
176
     1
290
     0
176
     1
 90
       50
176
     1
 40
0.0
176
     1
 40
1.0
176
     1
 90
        0
176
     1
 62
    18
420
        0
176
     1
 90
       50
176
     1
 90
        3
176
     1
 62
     5
420
      255
176
     1
290
     0
176
     1
 90
       50
176
     1
 90
       50
176
     1
 90
       50
176
     1
290
     0
176
     1
 90
       50
176
     1
 62
   256
176
     0
 40
1.0
176
     0
 90
        2
176
     1
  1
strokes_ogs.tif
176
     1
290
     0
176
     1
 40
1.0
176
     1
 40
1.0
176
     1
  0
VISUALSTYLE
  5
40
102
{ACAD_REACTORS
330
29
102
}
330
29
100
AcDbVisualStyle
  2
OverhangOff
 70
    21
177
     3
291
     1
 70
    58
 90
        2
176
     0
 90
        2
176
     0
 90
        0
176
     0
 90
        0
176
     0
 40
0.6
176
     0
 40
30.0
176
     0
 62
     7
420
 16777215
176
     0
 90
        1
176
     0
 90
        4
176
     0
 62
     7
176
     0
 62
   257
176
     0
 90
        1
176
     0
 90
        1
176
     0
 40
1.0
176
     0
 90
        9
176
     2
 62
     7
176
     0
 40
1.0
176
     0
 90
        1
176
     0
 90
        6
176
     0
 90
        2
176
     0
 62
     7
176
     0
 90
        5
176
     0
 90
        0
176
     0
 90
        0
176
     0
290
     0
176
     0
 90
        1
176
     0
 40
0.0
176
     0
 90
        0
176
     0
290
     0
176
     0
290
     1
176
     0
290
     1
176
     0
290
     0
176
     0
290
     0
176
     0
290
     0
176
     0
290
     0
176
     0
290
     0
176
     0
290
     0
176
     0
 90
       50
176
     0
 40
0.0
176
     0
 40
1.0
176
     0
 90
        0
176
     0
 62
    18
420
        0
176
     0
 90
       50
176
     0
 90
        3
176
     0
 62
     5
420
      255
176
     0
290
     0
176
     0
 90
       50
176
     0
 90
       50
176
     0
 90
       50
176
     0
290
     0
176
     0
 90
       50
176
     0
 62
   256
176
     0
 40
1.0
176
     0
 90
        2
176
     0
  1
strokes_ogs.tif
176
     0
290
     0
176
     0
 40
1.0
176
     0
 40
1.0
176
     0
  0
VISUALSTYLE
  5
33
102
{ACAD_REACTORS
330
29
102
}
330
29
100
AcDbVisualStyle
  2
Realistic
 70
     8
177
     3
291
     0
 70
    58
 90
        2
176
     1
 90
        3
176
     1
 90
        0
176
     1
 90
        2
176
     1
 40
0.6
176
     1
 40
30.0
176
     1
 62
     7
420
 16777215
176
     1
 90
        0
176
     1
 90
        0
176
     1
 62
     7
176
     1
 62
   257
176
     1
 90
        1
176
     1
 90
        1
176
     1
 40
1.0
176
     1
 90
        8
176
     1
 62
   257
176
     1
 40
1.0
176
     1
 90
        1
176
     1
 90
        6
176
     1
 90
        2
176
     1
 62
     7
176
     1
 90
        3
176
     1
 90
        0
176
     1
 90
        0
176
     1
290
     0
176
     1
 90
       13
176
     1
 40
0.0
176
     1
 90
        0
176
     1
290
     0
176
     1
290
     1
176
     1
290
     1
176
     1
290
     0
176
     1
290
     0
176
     1
290
     0
176
     1
290
     0
176
     1
290
     0
176
     1
290
     0
176
     1
 90
       50
176
     1
 40
0.0
176
     1
 40
1.0
176
     1
 90
        0
176
     1
 62
    18
420
        0
176
     1
 90
       50
176
     1
 90
        3
176
     1
 62
     5
420
      255
176
     1
290
     0
176
     1
 90
       50
176
     1
 90
       50
176
     1
 90
       50
176
     1
290
     0
176
     1
 90
       50
176
     1
 62
   256
176
     0
 40
1.0
176
     0
 90
        2
176
     1
  1
strokes_ogs.tif
176
     1
290
     0
176
     1
 40
1.0
176
     1
 40
1.0
176
     1
  0
VISUALSTYLE
  5
3E
102
{ACAD_REACTORS
330
29
102
}
330
29
100
AcDbVisualStyle
  2
Shaded
 70
    27
177
     3
291
     0
 70
    58
 90
        2
176
     1
 90
        2
176
     1
 90
        1
176
     1
 90
        2
176
     1
 40
0.6
176
     1
 40
30.0
176
     1
 62
     7
420
 16777215
176
     1
 90
        0
176
     1
 90
        4
176
     1
 62
     7
176
     1
 62
   257
176
     1
 90
        1
176
     1
 90
        1
176
     1
 40
1.0
176
     1
 90
        8
176
     1
 62
   257
176
     1
 40
1.0
176
     1
 90
        1
176
     1
 90
        6
176
     1
 90
        2
176
     1
 62
     8
420
  7895160
176
     1
 90
        3
176
     1
 90
        0
176
     1
 90
        0
176
     1
290
     0
176
     1
 90
        5
176
     1
 40
0.0
176
     1
 90
        0
176
     1
290
     0
176
     1
290
     1
176
     1
290
     1
176
     1
290
     0
176
     1
290
     0
176
     1
290
     0
176
     1
290
     0
176
     1
290
     0
176
     1
290
     0
176
     1
 90
       50
176
     1
 40
0.0
176
     1
 40
1.0
176
     1
 90
        0
176
     1
 62
    18
420
        0
176
     1
 90
       50
176
     1
 90
        3
176
     1
 62
     5
420
      255
176
     1
290
     0
176
     1
 90
       50
176
     1
 90
       50
176
     1
 90
       50
176
     1
290
     0
176
     1
 90
       50
176
     1
 62
   256
176
     0
 40
1.0
176
     0
 90
        2
176
     1
  1
strokes_ogs.tif
176
     1
290
     0
176
     1
 40
1.0
176
     1
 40
1.0
176
     1
  0
VISUALSTYLE
  5
3D
102
{ACAD_REACTORS
330
29
102
}
330
29
100
AcDbVisualStyle
  2
Shaded with edges
 70
    26
177
     3
291
     0
 70
    58
 90
        2
176
     1
 90
        2
176
     1
 90
        1
176
     1
 90
        2
176
     1
 40
0.6
176
     1
 40
30.0
176
     1
 62
     7
420
 16777215
176
     1
 90
        1
176
     1
 90
        2
176
     1
 62
     7
176
     1
 62
   257
176
     1
 90
        2
176
     1
 90
        1
176
     1
 40
1.0
176
     1
 90
        8
176
     1
 62
   257
176
     1
 40
1.0
176
     1
 90
        1
176
     1
 90
        6
176
     1
 90
        2
176
     1
 62
     7
176
     1
 90
        3
176
     1
 90
        0
176
     1
 90
        0
176
     1
290
     0
176
     1
 90
        5
176
     1
 40
0.0
176
     1
 90
        0
176
     1
290
     0
176
     1
290
     1
176
     1
290
     1
176
     1
290
     0
176
     1
290
     0
176
     1
290
     0
176
     1
290
     0
176
     1
290
     0
176
     1
290
     0
176
     1
 90
       50
176
     1
 40
0.0
176
     1
 40
1.0
176
     1
 90
        0
176
     1
 62
    18
420
        0
176
     1
 90
       50
176
     1
 90
        3
176
     1
 62
     5
420
      255
176
     1
290
     0
176
     1
 90
       50
176
     1
 90
       50
176
     1
 90
       50
176
     1
290
     0
176
     1
 90
       50
176
     1
 62
   256
176
     0
 40
1.0
176
     0
 90
        2
176
     1
  1
strokes_ogs.tif
176
     1
290
     0
176
     1
 40
1.0
176
     1
 40
1.0
176
     1
  0
VISUALSTYLE
  5
3A
102
{ACAD_REACTORS
330
29
102
}
330
29
100
AcDbVisualStyle
  2
Shades of Gray
 70
    23
177
     3
291
     0
 70
    58
 90
        2
176
     1
 90
        2
176
     1
 90
        3
176
     1
 90
        0
176
     1
 40
0.6
176
     1
 40
30.0
176
     1
 62
     7
420
 16777215
176
     1
 90
        2
176
     1
 90
        2
176
     1
 62
     7
176
     1
 62
     7
176
     1
 90
        1
176
     1
 90
        1
176
     1
 40
40.0
176
     1
 90
        8
176
     1
 62
     7
176
     1
 40
1.0
176
     1
 90
        1
176
     1
 90
        6
176
     1
 90
        2
176
     1
 62
     7
176
     1
 90
        3
176
     1
 90
        0
176
     1
 90
        0
176
     1
290
     0
176
     1
 90
        1
176
     1
 40
0.0
176
     1
 90
        0
176
     1
290
     0
176
     1
290
     1
176
     1
290
     1
176
     1
290
     0
176
     1
290
     0
176
     1
290
     0
176
     1
290
     0
176
     1
290
     0
176
     1
290
     0
176
     1
 90
       50
176
     1
 40
0.0
176
     1
 40
1.0
176
     1
 90
        0
176
     1
 62
    18
420
        0
176
     1
 90
       50
176
     1
 90
        3
176
     1
 62
     5
420
      255
176
     1
290
     0
176
     1
 90
       50
176
     1
 90
       50
176
     1
 90
       50
176
     1
290
     0
176
     1
 90
       50
176
     1
 62
   256
176
     0
 40
1.0
176
     0
 90
        2
176
     1
  1
strokes_ogs.tif
176
     1
290
     0
176
     1
 40
1.0
176
     1
 40
1.0
176
     1
  0
VISUALSTYLE
  5
3B
102
{ACAD_REACTORS
330
29
102
}
330
29
100
AcDbVisualStyle
  2
Sketchy
 70
    24
177
     3
291
     0
 70
    58
 90
        1
176
     1
 90
        2
176
     1
 90
        2
176
     1
 90
        0
176
     1
 40
0.6
176
     1
 40
30.0
176
     1
 62
     7
420
 16777215
176
     1
 90
        2
176
     1
 90
        2
176
     1
 62
     7
176
     1
 62
     7
176
     1
 90
        1
176
     1
 90
        1
176
     1
 40
40.0
176
     1
 90
       11
176
     1
 62
     7
176
     1
 40
1.0
176
     1
 90
        1
176
     1
 90
        6
176
     1
 90
        2
176
     1
 62
     7
176
     1
 90
        6
176
     1
 90
        0
176
     1
 90
        0
176
     1
290
     0
176
     1
 90
        1
176
     1
 40
0.0
176
     1
 90
        0
176
     1
290
     0
176
     1
290
     1
176
     1
290
     1
176
     1
290
     0
176
     1
290
     0
176
     1
290
     0
176
     1
290
     0
176
     1
290
     0
176
     1
290
     0
176
     1
 90
       50
176
     1
 40
0.0
176
     1
 40
1.0
176
     1
 90
        0
176
     1
 62
    18
420
        0
176
     1
 90
       50
176
     1
 90
        3
176
     1
 62
     5
420
      255
176
     1
290
     0
176
     1
 90
       50
176
     1
 90
       50
176
     1
 90
       50
176
     1
290
     0
176
     1
 90
       50
176
     1
 62
   256
176
     0
 40
1.0
176
     0
 90
        2
176
     1
  1
strokes_ogs.tif
176
     1
290
     0
176
     1
 40
1.0
176
     1
 40
1.0
176
     1
  0
VISUALSTYLE
  5
36
102
{ACAD_REACTORS
330
29
102
}
330
29
100
AcDbVisualStyle
  2
Thicken
 70
    13
177
     3
291
     1
 70
    58
 90
        2
176
     1
 90
        2
176
     1
 90
        0
176
     1
 90
        0
176
     1
 40
0.6
176
     1
 40
30.0
176
     1
 62
     7
420
 16777215
176
     1
 90
        1
176
     1
 90
        4
176
     1
 62
     7
176
     1
 62
   257
176
     1
 90
        1
176
     1
 90
        1
176
     1
 40
1.0
176
     1
 90
       12
176
     1
 62
     7
176
     1
 40
1.0
176
     1
 90
        1
176
     1
 90
        6
176
     1
 90
        2
176
     1
 62
     7
176
     1
 90
        5
176
     1
 90
        0
176
     1
 90
        0
176
     1
290
     0
176
     1
 90
        1
176
     1
 40
0.0
176
     1
 90
        0
176
     1
290
     0
176
     1
290
     1
176
     1
290
     1
176
     1
290
     0
176
     1
290
     0
176
     1
290
     0
176
     1
290
     0
176
     1
290
     0
176
     1
290
     0
176
     1
 90
       50
176
     1
 40
0.0
176
     1
 40
1.0
176
     1
 90
        0
176
     1
 62
    18
420
        0
176
     1
 90
       50
176
     1
 90
        3
176
     1
 62
     5
420
      255
176
     1
290
     0
176
     1
 90
       50
176
     1
 90
       50
176
     1
 90
       50
176
     1
290
     0
176
     1
 90
       50
176
     1
 62
   256
176
     0
 40
1.0
176
     0
 90
        2
176
     1
  1
strokes_ogs.tif
176
     1
290
     0
176
     1
 40
1.0
176
     1
 40
1.0
176
     1
  0
VISUALSTYLE
  5
30
102
{ACAD_REACTORS
330
29
102
}
330
29
100
AcDbVisualStyle
  2
Wireframe
 70
     5
177
     3
291
     0
 70
    58
 90
        0
176
     1
 90
        2
176
     1
 90
        0
176
     1
 90
        0
176
     1
 40
0.6
176
     1
 40
30.0
176
     1
 62
     7
420
 16777215
176
     1
 90
        1
176
     1
 90
        4
176
     1
 62
     7
176
     1
 62
   257
176
     1
 90
        1
176
     1
 90
        1
176
     1
 40
1.0
176
     1
 90
        0
176
     1
 62
   257
176
     1
 40
1.0
176
     1
 90
        1
176
     1
 90
        6
176
     1
 90
        2
176
     1
 62
     7
176
     1
 90
        3
176
     1
 90
        0
176
     1
 90
        0
176
     1
290
     0
176
     1
 90
        1
176
     1
 40
0.0
176
     1
 90
        0
176
     1
290
     0
176
     1
290
     1
176
     1
290
     1
176
     1
290
     0
176
     1
290
     0
176
     1
290
     0
176
     1
290
     0
176
     1
290
     0
176
     1
290
     0
176
     1
 90
       50
176
     1
 40
0.0
176
     1
 40
1.0
176
     1
 90
        0
176
     1
 62
    18
420
        0
176
     1
 90
       50
176
     1
 90
        3
176
     1
 62
     5
420
      255
176
     1
290
     0
176
     1
 90
       50
176
     1
 90
       50
176
     1
 90
       50
176
     1
290
     0
176
     1
 90
       50
176
     1
 62
   256
176
     0
 40
1.0
176
     0
 90
        2
176
     1
  1
strokes_ogs.tif
176
     1
290
     0
176
     1
 40
1.0
176
     1
 40
1.0
176
     1
  0
VISUALSTYLE
  5
3C
102
{ACAD_REACTORS
330
29
102
}
330
29
100
AcDbVisualStyle
  2
X-Ray
 70
    25
177
     3
291
     0
 70
    58
 90
        2
176
     1
 90
        2
176
     1
 90
        1
176
     1
 90
        1
176
     1
 40
0.5
176
     1
 40
30.0
176
     1
 62
     7
420
 16777215
176
     1
 90
        1
176
     1
 90
        0
176
     1
 62
     7
176
     1
 62
   257
176
     1
 90
        1
176
     1
 90
        1
176
     1
 40
1.0
176
     1
 90
        8
176
     1
 62
     7
176
     1
 40
1.0
176
     1
 90
        1
176
     1
 90
        6
176
     1
 90
        2
176
     1
 62
     7
176
     1
 90
        3
176
     1
 90
        0
176
     1
 90
        0
176
     1
290
     0
176
     1
 90
       13
176
     1
 40
0.0
176
     1
 90
        0
176
     1
290
     0
176
     1
290
     1
176
     1
290
     1
176
     1
290
     0
176
     1
290
     0
176
     1
290
     0
176
     1
290
     0
176
     1
290
     0
176
     1
290
     0
176
     1
 90
       50
176
     1
 40
0.0
176
     1
 40
1.0
176
     1
 90
        0
176
     1
 62
    18
420
        0
176
     1
 90
       50
176
     1
 90
        3
176
     1
 62
     5
420
      255
176
     1
290
     0
176
     1
 90
       50
176
     1
 90
       50
176
     1
 90
       50
176
     1
290
     0
176
     1
 90
       50
176
     1
 62
   256
176
     0
 40
1.0
176
     0
 90
        2
176
     1
  1
strokes_ogs.tif
176
     1
290
     0
176
     1
 40
1.0
176
     1
 40
1.0
176
     1
  0
DICTIONARYVAR
  5
CE
102
{ACAD_REACTORS
330
C9
102
}
330
C9
100
DictionaryVariables
280
     0
  1
1:1
  0
DICTIONARYVAR
  5
CB
102
{ACAD_REACTORS
330
C9
102
}
330
C9
100
DictionaryVariables
280
     0
  1
STANDARD
  0
DICTIONARYVAR
  5
CA
102
{ACAD_REACTORS
330
C9
102
}
330
C9
100
DictionaryVariables
280
     0
  1
STANDARD
  0
DICTIONARYVAR
  5
CC
102
{ACAD_REACTORS
330
C9
102
}
330
C9
100
DictionaryVariables
280
     0
  1
Imperial24
  0
DICTIONARYVAR
  5
CD
102
{ACAD_REACTORS
330
C9
102
}
330
C9
100
DictionaryVariables
280
     0
  1
Imperial24
  0
DICTIONARY
  5
1A
330
19
100
AcDbDictionary
280
     1
281
     1
  3
BUMPTILE
360
1C
  3
DIFFUSETILE
360
1B
  3
OPACITYTILE
360
1F
  3
REFLECTIONTILE
360
1E
  3
REFRACTIONTILE
360
20
  3
SPECULARTILE
360
1D
  0
DICTIONARY
  5
12
330
11
100
AcDbDictionary
280
     1
281
     1
  3
BUMPTILE
360
14
  3
DIFFUSETILE
360
13
  3
OPACITYTILE
360
17
  3
REFLECTIONTILE
360
16
  3
REFRACTIONTILE
360
18
  3
SPECULARTILE
360
15
  0
DICTIONARY
  5
22
330
21
100
AcDbDictionary
280
     1
281
     1
  3
BUMPTILE
360
24
  3
DIFFUSETILE
360
23
  3
OPACITYTILE
360
27
  3
REFLECTIONTILE
360
26
  3
REFRACTIONTILE
360
28
  3
SPECULARTILE
360
25
  0
DICTIONARY
  5
CF
330
65
100
AcDbDictionary
280
     1
281
     1
  3
ACAD_ROUNDTRIP_2008_TABLESTYLE_CELLSTYLEMAP
360
D0
  0
XRECORD
  5
1C
102
{ACAD_REACTORS
330
1A
102
}
330
1A
100
AcDbXrecord
280
     1
270
     1
271
     1
  0
XRECORD
  5
1B
102
{ACAD_REACTORS
330
1A
102
}
330
1A
100
AcDbXrecord
280
     1
270
     1
271
     1
  0
XRECORD
  5
1F
102
{ACAD_REACTORS
330
1A
102
}
330
1A
100
AcDbXrecord
280
     1
270
     1
271
     1
  0
XRECORD
  5
1E
102
{ACAD_REACTORS
330
1A
102
}
330
1A
100
AcDbXrecord
280
     1
270
     1
271
     1
  0
XRECORD
  5
20
102
{ACAD_REACTORS
330
1A
102
}
330
1A
100
AcDbXrecord
280
     1
270
     1
271
     1
  0
XRECORD
  5
1D
102
{ACAD_REACTORS
330
1A
102
}
330
1A
100
AcDbXrecord
280
     1
270
     1
271
     1
  0
XRECORD
  5
14
102
{ACAD_REACTORS
330
12
102
}
330
12
100
AcDbXrecord
280
     1
270
     1
271
     1
  0
XRECORD
  5
13
102
{ACAD_REACTORS
330
12
102
}
330
12
100
AcDbXrecord
280
     1
270
     1
271
     1
  0
XRECORD
  5
17
102
{ACAD_REACTORS
330
12
102
}
330
12
100
AcDbXrecord
280
     1
270
     1
271
     1
  0
XRECORD
  5
16
102
{ACAD_REACTORS
330
12
102
}
330
12
100
AcDbXrecord
280
     1
270
     1
271
     1
  0
XRECORD
  5
18
102
{ACAD_REACTORS
330
12
102
}
330
12
100
AcDbXrecord
280
     1
270
     1
271
     1
  0
XRECORD
  5
15
102
{ACAD_REACTORS
330
12
102
}
330
12
100
AcDbXrecord
280
     1
270
     1
271
     1
  0
XRECORD
  5
24
102
{ACAD_REACTORS
330
22
102
}
330
22
100
AcDbXrecord
280
     1
270
     1
271
     1
  0
XRECORD
  5
23
102
{ACAD_REACTORS
330
22
102
}
330
22
100
AcDbXrecord
280
     1
270
     1
271
     1
  0
XRECORD
  5
27
102
{ACAD_REACTORS
330
22
102
}
330
22
100
AcDbXrecord
280
     1
270
     1
271
     1
  0
XRECORD
  5
26
102
{ACAD_REACTORS
330
22
102
}
330
22
100
AcDbXrecord
280
     1
270
     1
271
     1
  0
XRECORD
  5
28
102
{ACAD_REACTORS
330
22
102
}
330
22
100
AcDbXrecord
280
     1
270
     1
271
     1
  0
XRECORD
  5
25
102
{ACAD_REACTORS
330
22
102
}
330
22
100
AcDbXrecord
280
     1
270
     1
271
     1
  0
CELLSTYLEMAP
  5
D0
102
{ACAD_REACTORS
330
CF
102
}
330
CF
100
AcDbCellStyleMap
 90
        3
300
CELLSTYLE
  1
TABLEFORMAT_BEGIN
 90
        5
170
     1
 91
        0
 92
    32768
 62
   257
 93
        1
300
CONTENTFORMAT
  1
CONTENTFORMAT_BEGIN
 90
        0
 91
        0
 92
      512
 93
        0
300

 40
0.0
140
1.0
 94
        5
 62
     0
340
55
144
0.25
309
CONTENTFORMAT_END
171
     0
 94
        0
309
TABLEFORMAT_END
  1
CELLSTYLE_BEGIN
 90
        1
 91
        1
300
_TITLE
309
CELLSTYLE_END
300
CELLSTYLE
  1
TABLEFORMAT_BEGIN
 90
        5
170
     1
 91
        0
 92
        0
 62
   257
 93
        1
300
CONTENTFORMAT
  1
CONTENTFORMAT_BEGIN
 90
        0
 91
        0
 92
      512
 93
        0
300

 40
0.0
140
1.0
 94
        5
 62
     0
340
55
144
0.18
309
CONTENTFORMAT_END
171
     0
 94
        0
309
TABLEFORMAT_END
  1
CELLSTYLE_BEGIN
 90
        2
 91
        1
300
_HEADER
309
CELLSTYLE_END
300
CELLSTYLE
  1
TABLEFORMAT_BEGIN
 90
        5
170
     1
 91
        0
 92
        0
 62
   257
 93
        1
300
CONTENTFORMAT
  1
CONTENTFORMAT_BEGIN
 90
        0
 91
        0
 92
      512
 93
        0
300

 40
0.0
140
1.0
 94
        2
 62
     0
340
55
144
0.18
309
CONTENTFORMAT_END
171
     0
 94
        0
309
TABLEFORMAT_END
  1
CELLSTYLE_BEGIN
 90
        3
 91
        2
300
_DATA
309
CELLSTYLE_END
  0
ENDSEC
  0
EOF
